999
dxflib 3.12.2.0
  0
SECTION
  2
HEADER
  9
$ACADVER
  1
AC1015
  9
$HANDSEED
  5
FFFF
  9
$ANGBASE
 50
0.0
  9
$ANGDIR
 70
0
  9
$ATTMODE
 70
0
  9
$AUNITS
 70
0
  9
$AUPREC
 70
2
  9
$CECOLOR
 62
256
  9
$CELTSCALE
 40
1.0
  9
$CHAMFERA
 40
0.0
  9
$CHAMFERB
 40
0.0
  9
$CHAMFERC
 40
0.0
  9
$CHAMFERD
 40
0.0
  9
$CMLJUST
 70
0
  9
$CMLSCALE
 40
20.0
  9
$DIMADEC
 70
0
  9
$DIMALT
 70
0
  9
$DIMALTD
 70
3
  9
$DIMALTF
 40
0.03937
  9
$DIMALTRND
 40
0.0
  9
$DIMALTTD
 70
3
  9
$DIMALTTZ
 70
0
  9
$DIMALTU
 70
2
  9
$DIMALTZ
 70
0
  9
$DIMAPOST
  1

  9
$DIMASZ
 40
0.1
  9
$DIMATFIT
 70
3
  9
$DIMAUNIT
 70
0
  9
$DIMAZIN
 70
0
  9
$DIMBLK
  1

  9
$DIMBLK1
  1

  9
$DIMBLK2
  1

  9
$DIMCEN
 40
2.5
  9
$DIMCLRD
 70
0
  9
$DIMCLRE
 70
0
  9
$DIMCLRT
 70
0
  9
$DIMDEC
 70
2
  9
$DIMDLE
 40
0.0
  9
$DIMDLI
 40
3.75
  9
$DIMDSEP
 70
44
  9
$DIMEXE
 40
0.05
  9
$DIMEXO
 40
0.025
  9
$DIMFRAC
 70
0
  9
$DIMGAP
 40
0.025
  9
$DIMJUST
 70
0
  9
$DIMLDRBLK
  1
STANDARD
  9
$DIMLFAC
 40
0.0393700787401575
  9
$DIMLIM
 70
0
  9
$DIMLUNIT
 70
2
  9
$DIMLWD
 70
-2
  9
$DIMLWE
 70
-2
  9
$DIMPOST
  1

  9
$DIMRND
 40
0.0
  9
$DIMSAH
 70
0
  9
$DIMSCALE
 40
0.0393700787401575
  9
$DIMSD1
 70
0
  9
$DIMSD2
 70
0
  9
$DIMSE1
 70
0
  9
$DIMSE2
 70
0
  9
$DIMSOXD
 70
0
  9
$DIMTAD
 70
1
  9
$DIMTDEC
 70
2
  9
$DIMTFAC
 40
1.0
  9
$DIMTIH
 70
0
  9
$DIMTIX
 70
0
  9
$DIMTM
 40
0.0
  9
$DIMTOFL
 70
1
  9
$DIMTOH
 70
0
  9
$DIMTOL
 70
0
  9
$DIMTOLJ
 70
0
  9
$DIMTP
 40
0.0
  9
$DIMTSZ
 40
0.0
  9
$DIMTVP
 40
0.0
  9
$DIMTXSTY
  7
STANDARD
  9
$DIMTXT
 40
0.1
  9
$DIMTZIN
 70
8
  9
$DIMUPT
 70
0
  9
$DIMZIN
 70
8
  9
$DISPSILH
 70
0
  9
$DWGCODEPAGE
  3
ANSI_1252
  9
$ELEVATION
 40
0.0
  9
$EXTMAX
 10
10.82418913263329
 20
8.511357440979987
 30
0.0
  9
$EXTMIN
 10
-1.4237348155606859
 20
0.0
 30
0.0
  9
$FILLETRAD
 40
0.0
  9
$FILLMODE
 70
1
  9
$INSBASE
 10
0.0
 20
0.0
 30
0.0
  9
$INSUNITS
 70
0
  9
$LIMCHECK
 70
0
  9
$LIMMAX
 10
420.0
 20
297.0
  9
$LIMMIN
 10
0.0
 20
0.0
  9
$LTSCALE
 40
1.0
  9
$LUNITS
 70
2
  9
$LUPREC
 70
4
  9
$MAXACTVP
 70
64
  9
$MEASUREMENT
 70
1
  9
$MIRRTEXT
 70
0
  9
$ORTHOMODE
 70
0
  9
$PDMODE
 70
34
  9
$PDSIZE
 40
0
  9
$PELEVATION
 40
0.0
  9
$PEXTMAX
 10
0.0
 20
0.0
 30
0.0
  9
$PEXTMIN
 10
0.0
 20
0.0
 30
0.0
  9
$PINSBASE
 10
0.0
 20
0.0
 30
0.0
  9
$PLIMCHECK
 70
0
  9
$PLIMMAX
 10
0.0005045270181061
 20
0.0007135453541786
  9
$PLIMMIN
 10
0.0
 20
0.0
  9
$PLINEGEN
 70
0
  9
$PLINEWID
 40
0.0
  9
$PROXYGRAPHICS
 70
1
  9
$PSLTSCALE
 70
1
  9
$PUCSNAME
  2

  9
$PUCSORG
 10
0.0
 20
0.0
 30
0.0
  9
$PUCSXDIR
 10
1.0
 20
0.0
 30
0.0
  9
$PUCSYDIR
 10
0.0
 20
1.0
 30
0.0
  9
$QTEXTMODE
 70
0
  9
$REGENMODE
 70
1
  9
$SHADEDGE
 70
3
  9
$SHADEDIF
 70
70
  9
$SKETCHINC
 40
1.0
  9
$SKPOLY
 70
0
  9
$SPLFRAME
 70
0
  9
$SPLINESEGS
 70
8
  9
$SPLINETYPE
 70
2
  9
$SURFTAB1
 70
6
  9
$SURFTAB2
 70
6
  9
$SURFTYPE
 70
6
  9
$SURFU
 70
6
  9
$SURFV
 70
6
  9
$TEXTSIZE
 40
2.5
  9
$TEXTSTYLE
  7
STANDARD
  9
$THICKNESS
 40
0.0
  9
$TILEMODE
 70
1
  9
$TRACEWID
 40
15.68
  9
$TREEDEPTH
 70
3020
  9
$UCSNAME
  2

  9
$UCSORG
 10
0.0
 20
0.0
 30
0.0
  9
$UCSXDIR
 10
1.0
 20
0.0
 30
0.0
  9
$UCSYDIR
 10
0.0
 20
1.0
 30
0.0
  9
$UNITMODE
 70
0
  9
$USERI1
 70
0
  9
$USERI2
 70
0
  9
$USERI3
 70
0
  9
$USERI4
 70
0
  9
$USERI5
 70
0
  9
$USERR1
 40
0.0
  9
$USERR2
 40
0.0
  9
$USERR3
 40
0.0
  9
$USERR4
 40
0.0
  9
$USERR5
 40
0.0
  9
$USRTIMER
 70
1
  9
$VISRETAIN
 70
1
  0
ENDSEC
  0
SECTION
  2
TABLES
  0
TABLE
  2
VPORT
  5
8
100
AcDbSymbolTable
 70
1
  0
VPORT
  5
30
100
AcDbSymbolTableRecord
100
AcDbViewportTableRecord
  2
*Active
 70
0
 10
0.0
 20
0.0
 11
1.0
 21
1.0
 12
286.30555555555549
 22
148.5
 13
0.0
 23
0.0
 14
10.0
 24
10.0
 15
10.0
 25
10.0
 16
0.0
 26
0.0
 36
1.0
 17
0.0
 27
0.0
 37
0.0
 40
297.0
 41
1.92798353909465
 42
50.0
 43
0.0
 44
0.0
 50
0.0
 51
0.0
 71
0
 72
100
 73
1
 74
3
 75
1
 76
1
 77
0
 78
0
281
0
 65
1
110
0.0
120
0.0
130
0.0
111
1.0
121
0.0
131
0.0
112
0.0
122
1.0
132
0.0
 79
0
146
0.0
  0
ENDTAB
  0
TABLE
  2
LTYPE
  5
5
100
AcDbSymbolTable
 70
47
  0
LTYPE
  5
16
100
AcDbSymbolTableRecord
100
AcDbLinetypeTableRecord
  2
Continuous
 70
0
  3
Solid line
 72
65
 73
0
 40
0.0
  0
LTYPE
  5
31
100
AcDbSymbolTableRecord
100
AcDbLinetypeTableRecord
  2
DIVIDEX2
 70
0
  3
Divide (2x) ________  .  .  ________  .  .  _
 72
65
 73
6
 40
63.5
 49
25.399999999999999
 74
0
 49
-12.649999999999999
 74
0
 49
0.1
 74
0
 49
-12.599999999999998
 74
0
 49
0.1
 74
0
 49
-12.649999999999999
 74
0
  0
LTYPE
  5
32
100
AcDbSymbolTableRecord
100
AcDbLinetypeTableRecord
  2
DOT2
 70
0
  3
Dot (.5x) .....................................
 72
65
 73
2
 40
3.1749999999999998
 49
0.1
 74
0
 49
-3.0749999999999997
 74
0
  0
LTYPE
  5
33
100
AcDbSymbolTableRecord
100
AcDbLinetypeTableRecord
  2
ACAD_ISO08W100
 70
0
  3
ISO long-dash short-dash ____ __ ____ __ ____ _
 72
65
 73
4
 40
36.0
 49
24.0
 74
0
 49
-3.0
 74
0
 49
6.0
 74
0
 49
-3.0
 74
0
  0
LTYPE
  5
34
100
AcDbSymbolTableRecord
100
AcDbLinetypeTableRecord
  2
DIVIDE2
 70
0
  3
Divide (.5x) __..__..__..__..__..__..__..__.._
 72
65
 73
6
 40
15.874999999999998
 49
6.3499999999999996
 74
0
 49
-3.125
 74
0
 49
0.1
 74
0
 49
-3.0750000000000002
 74
0
 49
0.1
 74
0
 49
-3.125
 74
0
  0
LTYPE
  5
35
100
AcDbSymbolTableRecord
100
AcDbLinetypeTableRecord
  2
DOT
 70
0
  3
Dot . . . . . . . . . . . . . . . . . . . . . .
 72
65
 73
2
 40
6.3499999999999996
 49
0.1
 74
0
 49
-6.25
 74
0
  0
LTYPE
  5
36
100
AcDbSymbolTableRecord
100
AcDbLinetypeTableRecord
  2
ACAD_ISO02W100
 70
0
  3
ISO dash __ __ __ __ __ __ __ __ __ __ __ __ __
 72
65
 73
2
 40
15.0
 49
12.0
 74
0
 49
-3.0
 74
0
  0
LTYPE
  5
37
100
AcDbSymbolTableRecord
100
AcDbLinetypeTableRecord
  2
DIVIDETINY
 70
0
  3
Divide (.15x) __..__..__..__..__..__..__..__.._
 72
65
 73
6
 40
4.7625000000000002
 49
1.905
 74
0
 49
-0.9025
 74
0
 49
0.1
 74
0
 49
-0.8524999999999999
 74
0
 49
0.1
 74
0
 49
-0.9025
 74
0
  0
LTYPE
  5
38
100
AcDbSymbolTableRecord
100
AcDbLinetypeTableRecord
  2
ACAD_ISO06W100
 70
0
  3
ISO long-dash triple-dot ____ ... ____ ... ____
 72
65
 73
8
 40
36.000000000000007
 49
24.0
 74
0
 49
-2.9500000000000002
 74
0
 49
0.1
 74
0
 49
-2.9000000000000004
 74
0
 49
0.1
 74
0
 49
-2.9000000000000004
 74
0
 49
0.1
 74
0
 49
-2.9500000000000002
 74
0
  0
LTYPE
  5
39
100
AcDbSymbolTableRecord
100
AcDbLinetypeTableRecord
  2
ACAD_ISO07W100
 70
0
  3
ISO dot . . . . . . . . . . . . . . . . . . . . 
 72
65
 73
2
 40
3.0
 49
0.1
 74
0
 49
-2.8999999999999999
 74
0
  0
LTYPE
  5
3A
100
AcDbSymbolTableRecord
100
AcDbLinetypeTableRecord
  2
ACAD_ISO09W100
 70
0
  3
ISO long-dash double-short-dash ____ __ __ ____
 72
65
 73
6
 40
45.0
 49
24.0
 74
0
 49
-3.0
 74
0
 49
6.0
 74
0
 49
-3.0
 74
0
 49
6.0
 74
0
 49
-3.0
 74
0
  0
LTYPE
  5
3B
100
AcDbSymbolTableRecord
100
AcDbLinetypeTableRecord
  2
DIVIDE
 70
0
  3
Divide ____ . . ____ . . ____ . . ____ . . ____
 72
65
 73
6
 40
31.750000000000004
 49
12.699999999999999
 74
0
 49
-6.2999999999999998
 74
0
 49
0.1
 74
0
 49
-6.25
 74
0
 49
0.1
 74
0
 49
-6.2999999999999998
 74
0
  0
LTYPE
  5
3C
100
AcDbSymbolTableRecord
100
AcDbLinetypeTableRecord
  2
PHANTOMX2
 70
0
  3
Phantom (2x) ____________    ____    ____   _
 72
65
 73
6
 40
127.00000000000001
 49
63.5
 74
0
 49
-12.699999999999999
 74
0
 49
12.699999999999999
 74
0
 49
-12.699999999999999
 74
0
 49
12.699999999999999
 74
0
 49
-12.699999999999999
 74
0
  0
LTYPE
  5
3D
100
AcDbSymbolTableRecord
100
AcDbLinetypeTableRecord
  2
BORDERTINY
 70
0
  3
Border (.15x) __.__.__.__.__.__.__.__.__.__.__.
 72
65
 73
6
 40
6.6674999999999995
 49
1.905
 74
0
 49
-0.9525
 74
0
 49
1.905
 74
0
 49
-0.9025
 74
0
 49
0.1
 74
0
 49
-0.9025
 74
0
  0
LTYPE
  5
3E
100
AcDbSymbolTableRecord
100
AcDbLinetypeTableRecord
  2
ACAD_ISO03W100
 70
0
  3
ISO dash space __    __    __    __    __    __
 72
65
 73
2
 40
30.0
 49
12.0
 74
0
 49
-18.0
 74
0
  0
LTYPE
  5
3F
100
AcDbSymbolTableRecord
100
AcDbLinetypeTableRecord
  2
HIDDEN2
 70
0
  3
Hidden (.5x) _ _ _ _ _ _ _ _ _ _ _ _ _ _ _ _ _ 
 72
65
 73
2
 40
4.7624999999999993
 49
3.1749999999999998
 74
0
 49
-1.5874999999999999
 74
0
  0
LTYPE
  5
40
100
AcDbSymbolTableRecord
100
AcDbLinetypeTableRecord
  2
DASHEDX2
 70
0
  3
Dashed (2x) ____  ____  ____  ____  ____  ___
 72
65
 73
2
 40
38.099999999999994
 49
25.399999999999999
 74
0
 49
-12.699999999999999
 74
0
  0
LTYPE
  5
41
100
AcDbSymbolTableRecord
100
AcDbLinetypeTableRecord
  2
ACAD_ISO10W100
 70
0
  3
ISO dash dot __ . __ . __ . __ . __ . __ . __ . 
 72
65
 73
4
 40
18.0
 49
12.0
 74
0
 49
-2.9500000000000002
 74
0
 49
0.1
 74
0
 49
-2.9500000000000002
 74
0
  0
LTYPE
  5
42
100
AcDbSymbolTableRecord
100
AcDbLinetypeTableRecord
  2
CENTERTINY
 70
0
  3
Center (.15x) ___ _ ___ _ ___ _ ___ _ ___ _ ___
 72
65
 73
4
 40
7.6199999999999992
 49
4.7625000000000002
 74
0
 49
-0.9525
 74
0
 49
0.9525
 74
0
 49
-0.9525
 74
0
  0
LTYPE
  5
43
100
AcDbSymbolTableRecord
100
AcDbLinetypeTableRecord
  2
DASHDOTX2
 70
0
  3
Dash dot (2x) ____  .  ____  .  ____  .  ___
 72
65
 73
4
 40
50.799999999999997
 49
25.399999999999999
 74
0
 49
-12.649999999999999
 74
0
 49
0.1
 74
0
 49
-12.649999999999999
 74
0
  0
LTYPE
  5
44
100
AcDbSymbolTableRecord
100
AcDbLinetypeTableRecord
  2
ACAD_ISO14W100
 70
0
  3
ISO dash triple-dot __ . . . __ . . . __ . . . _
 72
65
 73
8
 40
24.000000000000004
 49
12.0
 74
0
 49
-2.9500000000000002
 74
0
 49
0.1
 74
0
 49
-2.9000000000000004
 74
0
 49
0.1
 74
0
 49
-2.9000000000000004
 74
0
 49
0.1
 74
0
 49
-2.9500000000000002
 74
0
  0
LTYPE
  5
45
100
AcDbSymbolTableRecord
100
AcDbLinetypeTableRecord
  2
PHANTOM2
 70
0
  3
Phantom (.5x) ___ _ _ ___ _ _ ___ _ _ ___ _ _
 72
65
 73
6
 40
31.750000000000004
 49
15.875
 74
0
 49
-3.1749999999999998
 74
0
 49
3.1749999999999998
 74
0
 49
-3.1749999999999998
 74
0
 49
3.1749999999999998
 74
0
 49
-3.1749999999999998
 74
0
  0
LTYPE
  5
46
100
AcDbSymbolTableRecord
100
AcDbLinetypeTableRecord
  2
ACAD_ISO12W100
 70
0
  3
ISO dash double-dot __ . . __ . . __ . . __ . . 
 72
65
 73
6
 40
21.0
 49
12.0
 74
0
 49
-2.9500000000000002
 74
0
 49
0.1
 74
0
 49
-2.9000000000000004
 74
0
 49
0.1
 74
0
 49
-2.9500000000000002
 74
0
  0
LTYPE
  5
47
100
AcDbSymbolTableRecord
100
AcDbLinetypeTableRecord
  2
CENTER2
 70
0
  3
Center (.5x) ___ _ ___ _ ___ _ ___ _ ___ _ ___
 72
65
 73
4
 40
28.575000000000003
 49
19.050000000000001
 74
0
 49
-3.1749999999999998
 74
0
 49
3.1749999999999998
 74
0
 49
-3.1749999999999998
 74
0
  0
LTYPE
  5
48
100
AcDbSymbolTableRecord
100
AcDbLinetypeTableRecord
  2
ACAD_ISO11W100
 70
0
  3
ISO double-dash dot __ __ . __ __ . __ __ . __ _
 72
65
 73
6
 40
33.0
 49
12.0
 74
0
 49
-3.0
 74
0
 49
12.0
 74
0
 49
-2.9500000000000002
 74
0
 49
0.1
 74
0
 49
-2.9500000000000002
 74
0
  0
LTYPE
  5
49
100
AcDbSymbolTableRecord
100
AcDbLinetypeTableRecord
  2
ACAD_ISO05W100
 70
0
  3
ISO long-dash double-dot ____ .. ____ .. ____ . 
 72
65
 73
6
 40
33.000000000000007
 49
24.0
 74
0
 49
-2.9500000000000002
 74
0
 49
0.1
 74
0
 49
-2.9000000000000004
 74
0
 49
0.1
 74
0
 49
-2.9500000000000002
 74
0
  0
LTYPE
  5
4A
100
AcDbSymbolTableRecord
100
AcDbLinetypeTableRecord
  2
DOTTINY
 70
0
  3
Dot (.15x) .....................................
 72
65
 73
2
 40
0.9525
 49
0.1
 74
0
 49
-0.8525
 74
0
  0
LTYPE
  5
4B
100
AcDbSymbolTableRecord
100
AcDbLinetypeTableRecord
  2
DOTX2
 70
0
  3
Dot (2x) .  .  .  .  .  .  .  .  .  .  .  .  .
 72
65
 73
2
 40
12.699999999999999
 49
0.1
 74
0
 49
-12.6
 74
0
  0
LTYPE
  5
4C
100
AcDbSymbolTableRecord
100
AcDbLinetypeTableRecord
  2
HIDDENX2
 70
0
  3
Hidden (2x) ____ ____ ____ ____ ____ ____ ____ 
 72
65
 73
2
 40
19.049999999999997
 49
12.699999999999999
 74
0
 49
-6.3499999999999996
 74
0
  0
LTYPE
  5
4D
100
AcDbSymbolTableRecord
100
AcDbLinetypeTableRecord
  2
ACAD_ISO04W100
 70
0
  3
ISO long-dash dot ____ . ____ . ____ . ____ . _
 72
65
 73
4
 40
30.0
 49
24.0
 74
0
 49
-2.9500000000000002
 74
0
 49
0.1
 74
0
 49
-2.9500000000000002
 74
0
  0
LTYPE
  5
4E
100
AcDbSymbolTableRecord
100
AcDbLinetypeTableRecord
  2
DASHED2
 70
0
  3
Dashed (.5x) _ _ _ _ _ _ _ _ _ _ _ _ _ _ _ _ _
 72
65
 73
2
 40
9.5249999999999986
 49
6.3499999999999996
 74
0
 49
-3.1749999999999998
 74
0
  0
LTYPE
  5
4F
100
AcDbSymbolTableRecord
100
AcDbLinetypeTableRecord
  2
DASHDOTTINY
 70
0
  3
Dash dot (.15x) _._._._._._._._._._._._._._._.
 72
65
 73
4
 40
3.8100000000000001
 49
1.905
 74
0
 49
-0.9025
 74
0
 49
0.1
 74
0
 49
-0.9025
 74
0
  0
LTYPE
  5
50
100
AcDbSymbolTableRecord
100
AcDbLinetypeTableRecord
  2
BORDERX2
 70
0
  3
Border (2x) ____  ____  .  ____  ____  .  ___
 72
65
 73
6
 40
88.899999999999977
 49
25.399999999999999
 74
0
 49
-12.699999999999999
 74
0
 49
25.399999999999999
 74
0
 49
-12.649999999999999
 74
0
 49
0.1
 74
0
 49
-12.649999999999999
 74
0
  0
LTYPE
  5
51
100
AcDbSymbolTableRecord
100
AcDbLinetypeTableRecord
  2
CENTER
 70
0
  3
Center ____ _ ____ _ ____ _ ____ _ ____ _ ____
 72
65
 73
4
 40
50.800000000000004
 49
31.75
 74
0
 49
-6.3499999999999996
 74
0
 49
6.3499999999999996
 74
0
 49
-6.3499999999999996
 74
0
  0
LTYPE
  5
52
100
AcDbSymbolTableRecord
100
AcDbLinetypeTableRecord
  2
DASHED
 70
0
  3
Dashed _ _ _ _ _ _ _ _ _ _ _ _ _ _ _ _ _
 72
65
 73
2
 40
19.049999999999997
 49
12.699999999999999
 74
0
 49
-6.3499999999999996
 74
0
  0
LTYPE
  5
53
100
AcDbSymbolTableRecord
100
AcDbLinetypeTableRecord
  2
DASHEDTINY
 70
0
  3
Dashed (.15x) _ _ _ _ _ _ _ _ _ _ _ _ _ _ _ _ _
 72
65
 73
2
 40
2.8574999999999999
 49
1.905
 74
0
 49
-0.9525
 74
0
  0
LTYPE
  5
54
100
AcDbSymbolTableRecord
100
AcDbLinetypeTableRecord
  2
HIDDEN
 70
0
  3
Hidden __ __ __ __ __ __ __ __ __ __ __ __ __ __
 72
65
 73
2
 40
9.5249999999999986
 49
6.3499999999999996
 74
0
 49
-3.1749999999999998
 74
0
  0
LTYPE
  5
55
100
AcDbSymbolTableRecord
100
AcDbLinetypeTableRecord
  2
DASHDOT2
 70
0
  3
Dash dot (.5x) _._._._._._._._._._._._._._._.
 72
65
 73
4
 40
12.699999999999999
 49
6.3499999999999996
 74
0
 49
-3.125
 74
0
 49
0.1
 74
0
 49
-3.125
 74
0
  0
LTYPE
  5
56
100
AcDbSymbolTableRecord
100
AcDbLinetypeTableRecord
  2
BORDER
 70
0
  3
Border __ __ . __ __ . __ __ . __ __ . __ __ .
 72
65
 73
6
 40
44.449999999999996
 49
12.699999999999999
 74
0
 49
-6.3499999999999996
 74
0
 49
12.699999999999999
 74
0
 49
-6.2999999999999998
 74
0
 49
0.1
 74
0
 49
-6.2999999999999998
 74
0
  0
LTYPE
  5
15
100
AcDbSymbolTableRecord
100
AcDbLinetypeTableRecord
  2
ByLayer
 70
0
  3

 72
65
 73
0
 40
0.0
  0
LTYPE
  5
57
100
AcDbSymbolTableRecord
100
AcDbLinetypeTableRecord
  2
ACAD_ISO15W100
 70
0
  3
ISO double-dash triple-dot __ __ . . . __ __ . .
 72
65
 73
10
 40
39.000000000000007
 49
12.0
 74
0
 49
-3.0
 74
0
 49
12.0
 74
0
 49
-2.9500000000000002
 74
0
 49
0.1
 74
0
 49
-2.9000000000000004
 74
0
 49
0.1
 74
0
 49
-2.9000000000000004
 74
0
 49
0.1
 74
0
 49
-2.9500000000000002
 74
0
  0
LTYPE
  5
14
100
AcDbSymbolTableRecord
100
AcDbLinetypeTableRecord
  2
ByBlock
 70
0
  3

 72
65
 73
0
 40
0.0
  0
LTYPE
  5
58
100
AcDbSymbolTableRecord
100
AcDbLinetypeTableRecord
  2
PHANTOM
 70
0
  3
Phantom ______  __  __  ______  __  __  ______ 
 72
65
 73
6
 40
63.500000000000007
 49
31.75
 74
0
 49
-6.3499999999999996
 74
0
 49
6.3499999999999996
 74
0
 49
-6.3499999999999996
 74
0
 49
6.3499999999999996
 74
0
 49
-6.3499999999999996
 74
0
  0
LTYPE
  5
59
100
AcDbSymbolTableRecord
100
AcDbLinetypeTableRecord
  2
BORDER2
 70
0
  3
Border (.5x) __.__.__.__.__.__.__.__.__.__.__.
 72
65
 73
6
 40
22.225000000000001
 49
6.3499999999999996
 74
0
 49
-3.1749999999999998
 74
0
 49
6.3499999999999996
 74
0
 49
-3.125
 74
0
 49
0.1
 74
0
 49
-3.125
 74
0
  0
LTYPE
  5
5A
100
AcDbSymbolTableRecord
100
AcDbLinetypeTableRecord
  2
CENTERX2
 70
0
  3
Center (2x) ________  __  ________  __  _____
 72
65
 73
4
 40
101.60000000000001
 49
63.5
 74
0
 49
-12.699999999999999
 74
0
 49
12.699999999999999
 74
0
 49
-12.699999999999999
 74
0
  0
LTYPE
  5
5B
100
AcDbSymbolTableRecord
100
AcDbLinetypeTableRecord
  2
DASHDOT
 70
0
  3
Dash dot __ . __ . __ . __ . __ . __ . __ . __
 72
65
 73
4
 40
25.400000000000002
 49
12.699999999999999
 74
0
 49
-6.2999999999999998
 74
0
 49
0.1
 74
0
 49
-6.2999999999999998
 74
0
  0
LTYPE
  5
5C
100
AcDbSymbolTableRecord
100
AcDbLinetypeTableRecord
  2
ACAD_ISO13W100
 70
0
  3
ISO double-dash double-dot __ __ . . __ __ . . _
 72
65
 73
8
 40
36.000000000000007
 49
12.0
 74
0
 49
-3.0
 74
0
 49
12.0
 74
0
 49
-2.9500000000000002
 74
0
 49
0.1
 74
0
 49
-2.9000000000000004
 74
0
 49
0.1
 74
0
 49
-2.9500000000000002
 74
0
  0
ENDTAB
  0
TABLE
  2
LAYER
  5
2
100
AcDbSymbolTable
 70
7
  0
LAYER
  5
10
100
AcDbSymbolTableRecord
100
AcDbLayerTableRecord
  2
0
 70
0
 62
7
420
16777215
  6
Continuous
370
-3
390
F
  0
LAYER
  5
5D
100
AcDbSymbolTableRecord
100
AcDbLayerTableRecord
  2
RIBBON CONNECTORS
 70
0
 62
6
420
16711935
  6
Continuous
370
-3
390
F
  0
LAYER
  5
5E
100
AcDbSymbolTableRecord
100
AcDbLayerTableRecord
  2
PHOENIX CONNECTORS
 70
0
 62
30
420
16744192
  6
Continuous
370
-3
390
F
  0
LAYER
  5
5F
100
AcDbSymbolTableRecord
100
AcDbLayerTableRecord
  2
PCB
 70
0
 62
94
420
32768
  6
Continuous
370
-3
390
F
  0
LAYER
  5
60
100
AcDbSymbolTableRecord
100
AcDbLayerTableRecord
  2
TEXT
 70
0
 62
7
420
16777215
  6
Continuous
370
25
390
F
  0
LAYER
  5
61
100
AcDbSymbolTableRecord
100
AcDbLayerTableRecord
  2
LEDs
 70
0
 62
8
420
8355711
  6
Continuous
370
-3
390
F
  0
LAYER
  5
62
100
AcDbSymbolTableRecord
100
AcDbLayerTableRecord
  2
HARDWARE
 70
0
 62
4
420
65535
  6
Continuous
370
-3
390
F
  0
ENDTAB
  0
TABLE
  2
STYLE
  5
3
100
AcDbSymbolTable
 70
9
  0
STYLE
  5
63
100
AcDbSymbolTableRecord
100
AcDbTextStyleTableRecord
  2
Standard
 70
0
 40
0.0
 41
1.0
 50
0.0
 71
0
 42
2.5
  3

  4

1001
ACAD
1000
txt
1071
0
  0
STYLE
  5
64
100
AcDbSymbolTableRecord
100
AcDbTextStyleTableRecord
  2
textstyle0
 70
0
 40
0.0
 41
1.0
 50
0.0
 71
0
 42
0.125
  3

  4

1001
ACAD
1000
titleblock
1071
0
  0
STYLE
  5
65
100
AcDbSymbolTableRecord
100
AcDbTextStyleTableRecord
  2
textstyle1
 70
0
 40
0.0
 41
1.0
 50
0.0
 71
0
 42
0.125
  3

  4

1001
ACAD
1000
titleblock
1071
0
  0
STYLE
  5
66
100
AcDbSymbolTableRecord
100
AcDbTextStyleTableRecord
  2
textstyle2
 70
0
 40
0.0
 41
1.0
 50
0.0
 71
0
 42
0.125
  3

  4

1001
ACAD
1000
titleblock
1071
0
  0
STYLE
  5
67
100
AcDbSymbolTableRecord
100
AcDbTextStyleTableRecord
  2
textstyle3
 70
0
 40
0.0
 41
1.0
 50
0.0
 71
0
 42
0.125
  3

  4

1001
ACAD
1000
titleblock
1071
0
  0
STYLE
  5
68
100
AcDbSymbolTableRecord
100
AcDbTextStyleTableRecord
  2
textstyle4
 70
0
 40
0.0
 41
1.0
 50
0.0
 71
0
 42
0.125
  3

  4

1001
ACAD
1000
titleblock
1071
0
  0
STYLE
  5
69
100
AcDbSymbolTableRecord
100
AcDbTextStyleTableRecord
  2
textstyle5
 70
0
 40
0.0
 41
1.0
 50
0.0
 71
0
 42
0.125
  3

  4

1001
ACAD
1000
titleblock
1071
0
  0
STYLE
  5
6A
100
AcDbSymbolTableRecord
100
AcDbTextStyleTableRecord
  2
textstyle6
 70
0
 40
0.0
 41
1.0
 50
0.0
 71
0
 42
0.125
  3

  4

1001
ACAD
1000
titleblock
1071
0
  0
STYLE
  5
6B
100
AcDbSymbolTableRecord
100
AcDbTextStyleTableRecord
  2
textstyle7
 70
0
 40
0.0
 41
1.0
 50
0.0
 71
0
 42
0.125
  3

  4

1001
ACAD
1000
titleblock
1071
0
  0
ENDTAB
  0
TABLE
  2
VIEW
  5
6
100
AcDbSymbolTable
 70
0
  0
ENDTAB
  0
TABLE
  2
UCS
  5
7
100
AcDbSymbolTable
 70
0
  0
ENDTAB
  0
TABLE
  2
APPID
  5
9
100
AcDbSymbolTable
 70
1
  0
APPID
  5
12
100
AcDbSymbolTableRecord
100
AcDbRegAppTableRecord
  2
ACAD
 70
0
  0
APPID
  5
6C
100
AcDbSymbolTableRecord
100
AcDbRegAppTableRecord
  2
QCAD
 70
0
  0
ENDTAB
  0
TABLE
  2
DIMSTYLE
  5
A
100
AcDbSymbolTable
 70
1
100
AcDbDimStyleTable
 71
0
  0
DIMSTYLE
105
27
100
AcDbSymbolTableRecord
100
AcDbDimStyleTableRecord
  2
Standard
 41
0.1
 42
0.025
 43
3.75
 44
0.05
 70
0
 73
0
 74
0
 77
1
 78
8
140
0.1
141
2.5
143
0.03937007874016
147
0.025
171
3
172
1
271
2
272
2
274
3
278
44
283
0
284
8
340
63
  0
ENDTAB
  0
TABLE
  2
BLOCK_RECORD
  5
1
100
AcDbSymbolTable
 70
1
  0
BLOCK_RECORD
  5
1F
100
AcDbSymbolTableRecord
100
AcDbBlockTableRecord
  2
*Model_Space
340
22
  0
BLOCK_RECORD
  5
1B
100
AcDbSymbolTableRecord
100
AcDbBlockTableRecord
  2
*Paper_Space
340
1E
  0
BLOCK_RECORD
  5
23
100
AcDbSymbolTableRecord
100
AcDbBlockTableRecord
  2
*Paper_Space0
340
26
  0
BLOCK_RECORD
  5
6D
100
AcDbSymbolTableRecord
100
AcDbBlockTableRecord
  2
LEDS
340
0
  0
BLOCK_RECORD
  5
6E
100
AcDbSymbolTableRecord
100
AcDbBlockTableRecord
  2
CONN RIBBON 16 PIN
340
0
  0
BLOCK_RECORD
  5
6F
100
AcDbSymbolTableRecord
100
AcDbBlockTableRecord
  2
CONN SCREW 6 PIN
340
0
  0
BLOCK_RECORD
  5
70
100
AcDbSymbolTableRecord
100
AcDbBlockTableRecord
  2
JACK PROGRAMMING
340
0
  0
BLOCK_RECORD
  5
71
100
AcDbSymbolTableRecord
100
AcDbBlockTableRecord
  2
HARDWARE SCREW PHILIPS
340
0
  0
BLOCK_RECORD
  5
72
100
AcDbSymbolTableRecord
100
AcDbBlockTableRecord
  2
CONN SCREW 2 PIN
340
0
  0
BLOCK_RECORD
  5
73
100
AcDbSymbolTableRecord
100
AcDbBlockTableRecord
  2
CONN SCREW 5 PIN
340
0
  0
BLOCK_RECORD
  5
74
100
AcDbSymbolTableRecord
100
AcDbBlockTableRecord
  2
SWITCH RESET
340
0
  0
BLOCK_RECORD
  5
75
100
AcDbSymbolTableRecord
100
AcDbBlockTableRecord
  2
CONN SCREW 9 PIN
340
0
  0
BLOCK_RECORD
  5
76
100
AcDbSymbolTableRecord
100
AcDbBlockTableRecord
  2
CONN SCREW 3 PIN
340
0
  0
BLOCK_RECORD
  5
77
100
AcDbSymbolTableRecord
100
AcDbBlockTableRecord
  2
CONN RIBBON 14 PIN
340
0
  0
ENDTAB
  0
ENDSEC
  0
SECTION
  2
BLOCKS
  0
BLOCK
  5
20
100
AcDbEntity
  8
0
100
AcDbBlockBegin
  2
*Model_Space
 70
0
 10
0.0
 20
0.0
 30
0.0
  3
*Model_Space
  1

  0
ENDBLK
  5
21
100
AcDbEntity
  8
0
100
AcDbBlockEnd
  0
BLOCK
  5
1C
100
AcDbEntity
 67
1
  8
0
100
AcDbBlockBegin
  2
*Paper_Space
 70
0
 10
0.0
 20
0.0
 30
0.0
  3
*Paper_Space
  1

  0
ENDBLK
  5
1D
100
AcDbEntity
 67
1
  8
0
100
AcDbBlockEnd
  0
BLOCK
  5
24
100
AcDbEntity
  8
0
100
AcDbBlockBegin
  2
*Paper_Space0
 70
0
 10
0.0
 20
0.0
 30
0.0
  3
*Paper_Space0
  1

  0
ENDBLK
  5
25
100
AcDbEntity
  8
0
100
AcDbBlockEnd
  0
BLOCK
  5
78
100
AcDbEntity
  8
0
100
AcDbBlockBegin
  2
LEDS
 70
0
 10
0.0
 20
0.0
 30
0.0
  3
LEDS
  1

  0
LWPOLYLINE
  5
79
  8
LEDs
 62
252
420
10526884
370
-1
 48
1.0
  6
ByLayer
100
AcDbEntity
100
AcDbPolyline
 90
14
 70
0
 10
0.03125
 20
-0.0661014596043117
 30
0.0
 10
-0.0625
 20
-0.0661014596043117
 30
0.0
 10
-0.0624999999999999
 20
0.1213985403956883
 30
0.0
 10
-0.0390624999999999
 20
0.1213985403956883
 30
0.0
 10
-0.0390624999999999
 20
0.0588985403956883
 30
0.0
 10
-0.015625
 20
0.0588985403956883
 30
0.0
 10
-0.0156249999999999
 20
0.1213985403956883
 30
0.0
 10
0.0156250000000001
 20
0.1213985403956883
 30
0.0
 10
0.015625
 20
0.0588985403956883
 30
0.0
 10
0.0390625
 20
0.0588985403956883
 30
0.0
 10
0.0390625000000001
 20
0.1213985403956883
 30
0.0
 10
0.0625
 20
0.1213985403956883
 30
0.0
 10
0.0625
 20
-0.0661014596043117
 30
0.0
 10
0.03125
 20
-0.0661014596043117
 30
0.0
  0
ARC
  5
7A
100
AcDbEntity
  8
LEDs
 62
2
420
16776960
370
-1
 48
1.0
  6
ByLayer
100
AcDbCircle
 10
-0.0
 20
-0.0973514596043117
 30
0.0
 40
0.03125
100
AcDbArc
 50
180.0
 51
0.0
  0
LINE
  5
7B
100
AcDbEntity
100
AcDbLine
  8
LEDs
 62
2
420
16776960
370
-1
 48
1.0
  6
ByLayer
 10
-0.03125
 20
-0.0973514596043117
 30
0.0
 11
-0.03125
 21
-0.0661014596043117
 31
0.0
  0
LINE
  5
7C
100
AcDbEntity
100
AcDbLine
  8
LEDs
 62
2
420
16776960
370
-1
 48
1.0
  6
ByLayer
 10
0.03125
 20
-0.0973514596043117
 30
0.0
 11
0.03125
 21
-0.0661014596043117
 31
0.0
  0
CIRCLE
  5
7D
100
AcDbEntity
100
AcDbCircle
  8
LEDs
 62
252
420
10526884
370
-1
 48
1.0
  6
ByLayer
 10
0.0
 20
0.0
 30
0.0
 40
0.0450199230127452
  0
LINE
  5
7E
100
AcDbEntity
100
AcDbLine
  8
LEDs
 62
2
420
16776960
370
-1
 48
1.0
  6
ByLayer
 10
-0.03125
 20
-0.0661014596043117
 30
0.0
 11
0.03125
 21
-0.0661014596043117
 31
0.0
  0
HATCH
  5
7F
  8
LEDs
 62
2
420
16776960
370
-1
 48
1.0
  6
ByLayer
100
AcDbEntity
100
AcDbHatch
 10
0.0
 20
0.0
 30
0.0
210
0.0
220
0.0
230
1.0
  2
SOLID
 70
1
 71
0
 91
1
 92
1
 93
4
 72
2
 10
-0.0
 20
-0.0973514596043117
 40
0.03125
 50
180.0
 51
0.0
 73
1
 72
1
 10
0.03125
 20
-0.0973514596043117
 11
0.03125
 21
-0.0661014596043117
 72
1
 10
0.03125
 20
-0.0661014596043117
 11
-0.03125
 21
-0.0661014596043117
 72
1
 10
-0.03125
 20
-0.0661014596043117
 11
-0.03125
 21
-0.0973514596043117
 97
0
 75
0
 76
1
 98
0
1001
ACAD
1010
0.0
1020
0.0
1030
0
  0
HATCH
  5
80
  8
LEDs
 62
252
420
10526884
370
-1
 48
1.0
  6
ByLayer
100
AcDbEntity
100
AcDbHatch
 10
0.0
 20
0.0
 30
0.0
210
0.0
220
0.0
230
1.0
  2
SOLID
 70
1
 71
0
 91
1
 92
1
 93
13
 72
1
 10
0.03125
 20
-0.0661014596043117
 11
-0.0625
 21
-0.0661014596043117
 72
1
 10
-0.0625
 20
-0.0661014596043117
 11
-0.0624999999999999
 21
0.1213985403956883
 72
1
 10
-0.0624999999999999
 20
0.1213985403956883
 11
-0.0390624999999999
 21
0.1213985403956883
 72
1
 10
-0.0390624999999999
 20
0.1213985403956883
 11
-0.0390624999999999
 21
0.0588985403956883
 72
1
 10
-0.0390624999999999
 20
0.0588985403956883
 11
-0.015625
 21
0.0588985403956883
 72
1
 10
-0.015625
 20
0.0588985403956883
 11
-0.0156249999999999
 21
0.1213985403956883
 72
1
 10
-0.0156249999999999
 20
0.1213985403956883
 11
0.0156250000000001
 21
0.1213985403956883
 72
1
 10
0.0156250000000001
 20
0.1213985403956883
 11
0.015625
 21
0.0588985403956883
 72
1
 10
0.015625
 20
0.0588985403956883
 11
0.0390625
 21
0.0588985403956883
 72
1
 10
0.0390625
 20
0.0588985403956883
 11
0.0390625000000001
 21
0.1213985403956883
 72
1
 10
0.0390625000000001
 20
0.1213985403956883
 11
0.0625
 21
0.1213985403956883
 72
1
 10
0.0625
 20
0.1213985403956883
 11
0.0625
 21
-0.0661014596043117
 72
1
 10
0.0625
 20
-0.0661014596043117
 11
0.03125
 21
-0.0661014596043117
 97
0
 75
0
 76
1
 98
0
1001
ACAD
1010
0.0
1020
0.0
1030
0
  0
ENDBLK
  5
81
100
AcDbEntity
  8
0
100
AcDbBlockEnd
  0
BLOCK
  5
82
100
AcDbEntity
  8
0
100
AcDbBlockBegin
  2
CONN RIBBON 16 PIN
 70
0
 10
0.0
 20
0.0
 30
0.0
  3
CONN RIBBON 16 PIN
  1

  0
LINE
  5
83
100
AcDbEntity
100
AcDbLine
  8
RIBBON CONNECTORS
 62
256
370
-1
 48
1.0
  6
ByLayer
 10
0.0
 20
1.099787199973475
 30
0.0
 11
0.3498589064458919
 21
1.099787199973475
 31
0.0
  0
LINE
  5
84
100
AcDbEntity
100
AcDbLine
  8
RIBBON CONNECTORS
 62
256
370
-1
 48
1.0
  6
ByLayer
 10
0.0
 20
0.6997513402727638
 30
0.0
 11
0.0
 21
1.099787199973475
 31
0.0
  0
LINE
  5
85
100
AcDbEntity
100
AcDbLine
  8
RIBBON CONNECTORS
 62
256
370
-1
 48
1.0
  6
ByLayer
 10
0.0
 20
0.4001519264707802
 30
0.0
 11
0.2404055118223455
 21
0.4001519264707786
 31
0.0
  0
LINE
  5
86
100
AcDbEntity
100
AcDbLine
  8
RIBBON CONNECTORS
 62
256
370
-1
 48
1.0
  6
ByLayer
 10
0.0
 20
0.0
 30
0.0
 11
0.0
 21
0.4001519264707802
 31
0.0
  0
LINE
  5
87
100
AcDbEntity
100
AcDbLine
  8
RIBBON CONNECTORS
 62
256
370
-1
 48
1.0
  6
ByLayer
 10
0.2404055118223454
 20
0.6997513402727638
 30
0.0
 11
0.0
 21
0.6997513402727638
 31
0.0
  0
LINE
  5
88
100
AcDbEntity
100
AcDbLine
  8
RIBBON CONNECTORS
 62
256
370
-1
 48
1.0
  6
ByLayer
 10
0.3498589064458919
 20
1.0997871999734752
 30
0.0
 11
0.3498589064458919
 21
0.0
 31
0.0
  0
LINE
  5
89
100
AcDbEntity
100
AcDbLine
  8
RIBBON CONNECTORS
 62
256
370
-1
 48
1.0
  6
ByLayer
 10
0.3498589064458919
 20
0.0
 30
0.0
 11
0.0
 21
0.0
 31
0.0
  0
LINE
  5
8A
100
AcDbEntity
100
AcDbLine
  8
RIBBON CONNECTORS
 62
256
370
-1
 48
1.0
  6
ByLayer
 10
0.2404055118223454
 20
0.6997513402727638
 30
0.0
 11
0.2404055118223454
 21
0.4001519264707802
 31
0.0
  0
LINE
  5
8B
100
AcDbEntity
100
AcDbLine
  8
RIBBON CONNECTORS
 62
256
370
-1
 48
1.0
  6
ByLayer
 10
0.2404055118223454
 20
0.6052308162771638
 30
0.0
 11
0.0079726757919705
 21
0.6052308162771638
 31
0.0
  0
LINE
  5
8C
100
AcDbEntity
100
AcDbLine
  8
RIBBON CONNECTORS
 62
256
370
-1
 48
1.0
  6
ByLayer
 10
0.2404055118223454
 20
0.5942516953996702
 30
0.0
 11
0.0079726757919705
 21
0.5942516953996702
 31
0.0
  0
LINE
  5
8D
100
AcDbEntity
100
AcDbLine
  8
RIBBON CONNECTORS
 62
256
370
-1
 48
1.0
  6
ByLayer
 10
0.0079726757919705
 20
0.6052308162771638
 30
0.0
 11
0.0079726757919705
 21
0.5942516953996702
 31
0.0
  0
LINE
  5
8E
100
AcDbEntity
100
AcDbLine
  8
RIBBON CONNECTORS
 62
256
370
-1
 48
1.0
  6
ByLayer
 10
0.0
 20
0.599741255838417
 30
0.0
 11
0.0079726757919705
 21
0.6052308162771638
 31
0.0
  0
LINE
  5
8F
100
AcDbEntity
100
AcDbLine
  8
RIBBON CONNECTORS
 62
256
370
-1
 48
1.0
  6
ByLayer
 10
0.0079726757919705
 20
0.5942516953996702
 30
0.0
 11
0.0
 21
0.599741255838417
 31
0.0
  0
LINE
  5
90
100
AcDbEntity
100
AcDbLine
  8
RIBBON CONNECTORS
 62
256
370
-1
 48
1.0
  6
ByLayer
 10
0.4496024677236861
 20
0.6056052163895132
 30
0.0
 11
0.3498589064458919
 21
0.6056052163895132
 31
0.0
  0
LINE
  5
91
100
AcDbEntity
100
AcDbLine
  8
RIBBON CONNECTORS
 62
256
370
-1
 48
1.0
  6
ByLayer
 10
0.4496024677236861
 20
0.505861655111719
 30
0.0
 11
0.3498589064458919
 21
0.505861655111719
 31
0.0
  0
LINE
  5
92
100
AcDbEntity
100
AcDbLine
  8
RIBBON CONNECTORS
 62
256
370
-1
 48
1.0
  6
ByLayer
 10
0.4496024677236861
 20
0.4061180938339248
 30
0.0
 11
0.3498589064458919
 21
0.4061180938339248
 31
0.0
  0
LINE
  5
93
100
AcDbEntity
100
AcDbLine
  8
RIBBON CONNECTORS
 62
256
370
-1
 48
1.0
  6
ByLayer
 10
0.4496024677236861
 20
0.3063745325561307
 30
0.0
 11
0.3498589064458919
 21
0.3063745325561307
 31
0.0
  0
LINE
  5
94
100
AcDbEntity
100
AcDbLine
  8
RIBBON CONNECTORS
 62
256
370
-1
 48
1.0
  6
ByLayer
 10
0.4496024677236861
 20
0.2066309712783365
 30
0.0
 11
0.3498589064458919
 21
0.2066309712783365
 31
0.0
  0
LINE
  5
95
100
AcDbEntity
100
AcDbLine
  8
RIBBON CONNECTORS
 62
256
370
-1
 48
1.0
  6
ByLayer
 10
0.4496024677236861
 20
0.7053487776673091
 30
0.0
 11
0.3498589064458919
 21
0.7053487776673073
 31
0.0
  0
LINE
  5
96
100
AcDbEntity
100
AcDbLine
  8
RIBBON CONNECTORS
 62
256
370
-1
 48
1.0
  6
ByLayer
 10
0.3498589064458919
 20
0.7941132180676078
 30
0.0
 11
0.4496024677236865
 21
0.7941132180676078
 31
0.0
  0
LINE
  5
97
100
AcDbEntity
100
AcDbLine
  8
RIBBON CONNECTORS
 62
256
370
-1
 48
1.0
  6
ByLayer
 10
0.4496024677236861
 20
0.8050923389451015
 30
0.0
 11
0.3498589064458919
 21
0.8050923389451015
 31
0.0
  0
LINE
  5
98
100
AcDbEntity
100
AcDbLine
  8
RIBBON CONNECTORS
 62
256
370
-1
 48
1.0
  6
ByLayer
 10
0.4496024677236865
 20
0.7941132180676078
 30
0.0
 11
0.4496024677236861
 21
0.8050923389451015
 31
0.0
  0
LINE
  5
99
100
AcDbEntity
100
AcDbLine
  8
RIBBON CONNECTORS
 62
256
370
-1
 48
1.0
  6
ByLayer
 10
0.4496024677236865
 20
0.893856779345402
 30
0.0
 11
0.4496024677236861
 21
0.9048359002228956
 31
0.0
  0
LINE
  5
9A
100
AcDbEntity
100
AcDbLine
  8
RIBBON CONNECTORS
 62
256
370
-1
 48
1.0
  6
ByLayer
 10
0.3498589064458919
 20
0.893856779345402
 30
0.0
 11
0.4496024677236865
 21
0.893856779345402
 31
0.0
  0
LINE
  5
9B
100
AcDbEntity
100
AcDbLine
  8
RIBBON CONNECTORS
 62
256
370
-1
 48
1.0
  6
ByLayer
 10
0.3498589064458919
 20
0.9048359002228956
 30
0.0
 11
0.3498589064458919
 21
0.893856779345402
 31
0.0
  0
LINE
  5
9C
100
AcDbEntity
100
AcDbLine
  8
RIBBON CONNECTORS
 62
256
370
-1
 48
1.0
  6
ByLayer
 10
0.4496024677236861
 20
0.9048359002228956
 30
0.0
 11
0.3498589064458919
 21
0.9048359002228956
 31
0.0
  0
LINE
  5
9D
100
AcDbEntity
100
AcDbLine
  8
RIBBON CONNECTORS
 62
256
370
-1
 48
1.0
  6
ByLayer
 10
0.4496024677236861
 20
0.5946260955120195
 30
0.0
 11
0.3498589064458919
 21
0.5946260955120195
 31
0.0
  0
LINE
  5
9E
100
AcDbEntity
100
AcDbLine
  8
RIBBON CONNECTORS
 62
256
370
-1
 48
1.0
  6
ByLayer
 10
0.4496024677236861
 20
0.4948825342342253
 30
0.0
 11
0.3498589064458919
 21
0.4948825342342253
 31
0.0
  0
LINE
  5
9F
100
AcDbEntity
100
AcDbLine
  8
RIBBON CONNECTORS
 62
256
370
-1
 48
1.0
  6
ByLayer
 10
0.4496024677236861
 20
0.3951389729564312
 30
0.0
 11
0.3498589064458919
 21
0.3951389729564312
 31
0.0
  0
LINE
  5
A0
100
AcDbEntity
100
AcDbLine
  8
RIBBON CONNECTORS
 62
256
370
-1
 48
1.0
  6
ByLayer
 10
0.4496024677236861
 20
0.295395411678637
 30
0.0
 11
0.3498589064458919
 21
0.295395411678637
 31
0.0
  0
LINE
  5
A1
100
AcDbEntity
100
AcDbLine
  8
RIBBON CONNECTORS
 62
256
370
-1
 48
1.0
  6
ByLayer
 10
0.4496024677236861
 20
0.1956518504008429
 30
0.0
 11
0.3498589064458919
 21
0.1956518504008429
 31
0.0
  0
LINE
  5
A2
100
AcDbEntity
100
AcDbLine
  8
RIBBON CONNECTORS
 62
256
370
-1
 48
1.0
  6
ByLayer
 10
0.4496024677236861
 20
0.6943696567898154
 30
0.0
 11
0.3498589064458919
 21
0.6943696567898137
 31
0.0
  0
LINE
  5
A3
100
AcDbEntity
100
AcDbLine
  8
RIBBON CONNECTORS
 62
256
370
-1
 48
1.0
  6
ByLayer
 10
0.4496024677236865
 20
0.7053487776673073
 30
0.0
 11
0.4496024677236861
 21
0.6943696567898137
 31
0.0
  0
LINE
  5
A4
100
AcDbEntity
100
AcDbLine
  8
RIBBON CONNECTORS
 62
256
370
-1
 48
1.0
  6
ByLayer
 10
0.4496024677236861
 20
0.6056052163895114
 30
0.0
 11
0.4496024677236865
 21
0.5946260955120195
 31
0.0
  0
LINE
  5
A5
100
AcDbEntity
100
AcDbLine
  8
RIBBON CONNECTORS
 62
256
370
-1
 48
1.0
  6
ByLayer
 10
0.4496024677236865
 20
0.505861655111719
 30
0.0
 11
0.4496024677236865
 21
0.4948825342342253
 31
0.0
  0
LINE
  5
A6
100
AcDbEntity
100
AcDbLine
  8
RIBBON CONNECTORS
 62
256
370
-1
 48
1.0
  6
ByLayer
 10
0.4496024677236865
 20
0.4061180938339248
 30
0.0
 11
0.4496024677236865
 21
0.3951389729564312
 31
0.0
  0
LINE
  5
A7
100
AcDbEntity
100
AcDbLine
  8
RIBBON CONNECTORS
 62
256
370
-1
 48
1.0
  6
ByLayer
 10
0.4496024677236865
 20
0.3063745325561325
 30
0.0
 11
0.4496024677236865
 21
0.2953954116786388
 31
0.0
  0
LINE
  5
A8
100
AcDbEntity
100
AcDbLine
  8
RIBBON CONNECTORS
 62
256
370
-1
 48
1.0
  6
ByLayer
 10
0.4496024677236865
 20
0.2066309712783383
 30
0.0
 11
0.4496024677236865
 21
0.1956518504008447
 31
0.0
  0
LINE
  5
A9
100
AcDbEntity
100
AcDbLine
  8
RIBBON CONNECTORS
 62
256
370
-1
 48
1.0
  6
ByLayer
 10
0.2404055118223454
 20
0.5050356157800024
 30
0.0
 11
0.0079726757919705
 21
0.5050356157800024
 31
0.0
  0
LINE
  5
AA
100
AcDbEntity
100
AcDbLine
  8
RIBBON CONNECTORS
 62
256
370
-1
 48
1.0
  6
ByLayer
 10
0.0079726757919705
 20
0.4940564949025088
 30
0.0
 11
0.0
 21
0.4995460553412556
 31
0.0
  0
LINE
  5
AB
100
AcDbEntity
100
AcDbLine
  8
RIBBON CONNECTORS
 62
256
370
-1
 48
1.0
  6
ByLayer
 10
0.0079726757919705
 20
0.5050356157800024
 30
0.0
 11
0.0079726757919705
 21
0.4940564949025088
 31
0.0
  0
LINE
  5
AC
100
AcDbEntity
100
AcDbLine
  8
RIBBON CONNECTORS
 62
256
370
-1
 48
1.0
  6
ByLayer
 10
0.0079726757919705
 20
0.5050356157800024
 30
0.0
 11
0.2404055118223454
 21
0.5050356157800024
 31
0.0
  0
LINE
  5
AD
100
AcDbEntity
100
AcDbLine
  8
RIBBON CONNECTORS
 62
256
370
-1
 48
1.0
  6
ByLayer
 10
0.0
 20
0.4995460553412556
 30
0.0
 11
0.0079726757919705
 21
0.5050356157800024
 31
0.0
  0
LINE
  5
AE
100
AcDbEntity
100
AcDbLine
  8
RIBBON CONNECTORS
 62
256
370
-1
 48
1.0
  6
ByLayer
 10
0.2404055118223454
 20
0.4940564949025088
 30
0.0
 11
0.0079726757919705
 21
0.4940564949025088
 31
0.0
  0
ARC
  5
AF
100
AcDbEntity
  8
RIBBON CONNECTORS
 62
256
370
-1
 48
1.0
  6
ByLayer
100
AcDbCircle
 10
0.4496024677236861
 20
0.8993463397841488
 30
0.0
 40
0.0075
100
AcDbArc
 50
227.049395639826
 51
132.950604360174
  0
ARC
  5
B0
100
AcDbEntity
  8
RIBBON CONNECTORS
 62
256
370
-1
 48
1.0
  6
ByLayer
100
AcDbCircle
 10
0.4496024677236861
 20
0.7996027785063546
 30
0.0
 40
0.0075
100
AcDbArc
 50
227.049395639826
 51
132.950604360174
  0
ARC
  5
B1
100
AcDbEntity
  8
RIBBON CONNECTORS
 62
256
370
-1
 48
1.0
  6
ByLayer
100
AcDbCircle
 10
0.4496024677236861
 20
0.6998592172285605
 30
0.0
 40
0.0075
100
AcDbArc
 50
227.049395639826
 51
132.950604360174
  0
ARC
  5
B2
100
AcDbEntity
  8
RIBBON CONNECTORS
 62
256
370
-1
 48
1.0
  6
ByLayer
100
AcDbCircle
 10
0.4496024677236861
 20
0.6001156559507663
 30
0.0
 40
0.0075
100
AcDbArc
 50
227.049395639826
 51
132.950604360174
  0
ARC
  5
B3
100
AcDbEntity
  8
RIBBON CONNECTORS
 62
256
370
-1
 48
1.0
  6
ByLayer
100
AcDbCircle
 10
0.4496024677236865
 20
0.5003720946729722
 30
0.0
 40
0.0075
100
AcDbArc
 50
227.049395639826
 51
132.950604360174
  0
ARC
  5
B4
100
AcDbEntity
  8
RIBBON CONNECTORS
 62
256
370
-1
 48
1.0
  6
ByLayer
100
AcDbCircle
 10
0.4496024677236865
 20
0.400628533395178
 30
0.0
 40
0.0075
100
AcDbArc
 50
227.049395639826
 51
132.950604360174
  0
ARC
  5
B5
100
AcDbEntity
  8
RIBBON CONNECTORS
 62
256
370
-1
 48
1.0
  6
ByLayer
100
AcDbCircle
 10
0.4496024677236865
 20
0.3008849721173856
 30
0.0
 40
0.0075
100
AcDbArc
 50
227.049395639826
 51
132.950604360174
  0
ARC
  5
B6
100
AcDbEntity
  8
RIBBON CONNECTORS
 62
256
370
-1
 48
1.0
  6
ByLayer
100
AcDbCircle
 10
0.4496024677236865
 20
0.2011414108395915
 30
0.0
 40
0.0075
100
AcDbArc
 50
227.049395639826
 51
132.950604360174
  0
ENDBLK
  5
B7
100
AcDbEntity
  8
0
100
AcDbBlockEnd
  0
BLOCK
  5
B8
100
AcDbEntity
  8
0
100
AcDbBlockBegin
  2
CONN SCREW 6 PIN
 70
0
 10
0.0
 20
0.0
 30
0.0
  3
CONN SCREW 6 PIN
  1

  0
LINE
  5
B9
100
AcDbEntity
100
AcDbLine
  8
PHOENIX CONNECTORS
 62
256
370
-1
 48
1.0
  6
ByLayer
 10
0.5906240447820963
 20
-0.0000000000000003
 30
0.0
 11
0.5906240447820945
 21
-0.204713600472469
 31
0.0
  0
LINE
  5
BA
100
AcDbEntity
100
AcDbLine
  8
PHOENIX CONNECTORS
 62
256
370
-1
 48
1.0
  6
ByLayer
 10
0.5906240447820936
 20
-0.4541015254911512
 30
0.0
 11
0.5906240447820927
 21
-0.9062500000000004
 31
0.0
  0
LINE
  5
BB
100
AcDbEntity
100
AcDbLine
  8
PHOENIX CONNECTORS
 62
256
370
-1
 48
1.0
  6
ByLayer
 10
0.3656249999999988
 20
-0.4184979577658021
 30
0.0
 11
0.4156250000000004
 21
-0.418497957765802
 31
0.0
  0
LINE
  5
BC
100
AcDbEntity
100
AcDbLine
  8
PHOENIX CONNECTORS
 62
256
370
-1
 48
1.0
  6
ByLayer
 10
0.6107831852227506
 20
-0.4642444320594103
 30
0.0
 11
0.6107831852227497
 21
-0.1945706939042118
 31
0.0
  0
LINE
  5
BD
100
AcDbEntity
100
AcDbLine
  8
PHOENIX CONNECTORS
 62
256
370
-1
 48
1.0
  6
ByLayer
 10
0.6107831852227497
 20
-0.1945706939042118
 30
0.0
 11
0.5906240447820963
 21
-0.20471360047247
 31
0.0
  0
LINE
  5
BE
100
AcDbEntity
100
AcDbLine
  8
PHOENIX CONNECTORS
 62
256
370
-1
 48
1.0
  6
ByLayer
 10
0.6107831852227506
 20
-0.4642444320594103
 30
0.0
 11
0.5906240447820963
 21
-0.454101525491152
 31
0.0
  0
LINE
  5
BF
100
AcDbEntity
100
AcDbLine
  8
PHOENIX CONNECTORS
 62
256
370
-1
 48
1.0
  6
ByLayer
 10
0.5906240447820936
 20
-0.2404932734604914
 30
0.0
 11
0.5906240447820945
 21
-0.3312174887779798
 31
0.0
  0
LINE
  5
C0
100
AcDbEntity
100
AcDbLine
  8
PHOENIX CONNECTORS
 62
256
370
-1
 48
1.0
  6
ByLayer
 10
0.3656249999999988
 20
-0.3312174887779804
 30
0.0
 11
0.3656249999999996
 21
-0.6074222480695193
 31
0.0
  0
LINE
  5
C1
100
AcDbEntity
100
AcDbLine
  8
PHOENIX CONNECTORS
 62
256
370
-1
 48
1.0
  6
ByLayer
 10
0.4156250000000004
 20
-0.3312174887779805
 30
0.0
 11
0.4156249999999995
 21
-0.6074222480695222
 31
0.0
  0
CIRCLE
  5
C2
100
AcDbEntity
100
AcDbCircle
  8
PHOENIX CONNECTORS
 62
256
370
-1
 48
1.0
  6
ByLayer
 10
0.2815773844001166
 20
-0.7404484923891416
 30
0.0
 40
0.08
  0
LINE
  5
C3
100
AcDbEntity
100
AcDbLine
  8
PHOENIX CONNECTORS
 62
256
370
-1
 48
1.0
  6
ByLayer
 10
0.2714583969447668
 20
-0.8204484923891389
 30
0.0
 11
0.2714583969447668
 21
-0.6604484923891427
 31
0.0
  0
LINE
  5
C4
100
AcDbEntity
100
AcDbLine
  8
PHOENIX CONNECTORS
 62
256
370
-1
 48
1.0
  6
ByLayer
 10
0.2914583969447673
 20
-0.8204484923891404
 30
0.0
 11
0.2914583969447673
 21
-0.6604484923891407
 31
0.0
  0
CIRCLE
  5
C5
100
AcDbEntity
100
AcDbCircle
  8
PHOENIX CONNECTORS
 62
256
370
-1
 48
1.0
  6
ByLayer
 10
0.4768898844001166
 20
-0.7404484923891406
 30
0.0
 40
0.08
  0
LINE
  5
C6
100
AcDbEntity
100
AcDbLine
  8
PHOENIX CONNECTORS
 62
256
370
-1
 48
1.0
  6
ByLayer
 10
0.4667708969447668
 20
-0.8204484923891435
 30
0.0
 11
0.4667708969447668
 21
-0.6604484923891403
 31
0.0
  0
LINE
  5
C7
100
AcDbEntity
100
AcDbLine
  8
PHOENIX CONNECTORS
 62
256
370
-1
 48
1.0
  6
ByLayer
 10
0.4867708969447673
 20
-0.820448492389142
 30
0.0
 11
0.4867708969447673
 21
-0.6604484923891407
 31
0.0
  0
LINE
  5
C8
100
AcDbEntity
100
AcDbLine
  8
PHOENIX CONNECTORS
 62
256
370
-1
 48
1.0
  6
ByLayer
 10
0.4156249999999986
 20
-0.4541015254911496
 30
0.0
 11
0.5906240447820936
 21
-0.4541015254911512
 31
0.0
  0
LINE
  5
C9
100
AcDbEntity
100
AcDbLine
  8
PHOENIX CONNECTORS
 62
256
370
-1
 48
1.0
  6
ByLayer
 10
0.2395620517896475
 20
-0.4541015254911489
 30
0.0
 11
0.3415130207232693
 21
-0.4541015254911511
 31
0.0
  0
LINE
  5
CA
100
AcDbEntity
100
AcDbLine
  8
PHOENIX CONNECTORS
 62
256
370
-1
 48
1.0
  6
ByLayer
 10
0.2395620517896466
 20
-0.4098063217325808
 30
0.0
 11
0.2395620517896475
 21
-0.4541015254911489
 31
0.0
  0
LINE
  5
CB
100
AcDbEntity
100
AcDbLine
  8
PHOENIX CONNECTORS
 62
256
370
-1
 48
1.0
  6
ByLayer
 10
0.3415130207232693
 20
-0.4098063217325802
 30
0.0
 11
0.2395620517896466
 21
-0.4098063217325808
 31
0.0
  0
LINE
  5
CC
100
AcDbEntity
100
AcDbLine
  8
PHOENIX CONNECTORS
 62
256
370
-1
 48
1.0
  6
ByLayer
 10
0.3415130207232693
 20
-0.4541015254911511
 30
0.0
 11
0.3415130207232693
 21
-0.4098063217325802
 31
0.0
  0
LINE
  5
CD
100
AcDbEntity
100
AcDbLine
  8
PHOENIX CONNECTORS
 62
256
370
-1
 48
1.0
  6
ByLayer
 10
0.4397369792767298
 20
-0.40980632173258
 30
0.0
 11
0.5416879482103525
 21
-0.4098063217325792
 31
0.0
  0
LINE
  5
CE
100
AcDbEntity
100
AcDbLine
  8
PHOENIX CONNECTORS
 62
256
370
-1
 48
1.0
  6
ByLayer
 10
0.4397369792767307
 20
-0.4541015254911495
 30
0.0
 11
0.4397369792767298
 21
-0.40980632173258
 31
0.0
  0
LINE
  5
CF
100
AcDbEntity
100
AcDbLine
  8
PHOENIX CONNECTORS
 62
256
370
-1
 48
1.0
  6
ByLayer
 10
0.5416879482103525
 20
-0.4541015254911502
 30
0.0
 11
0.4397369792767307
 21
-0.4541015254911495
 31
0.0
  0
LINE
  5
D0
100
AcDbEntity
100
AcDbLine
  8
PHOENIX CONNECTORS
 62
256
370
-1
 48
1.0
  6
ByLayer
 10
0.5416879482103525
 20
-0.4098063217325792
 30
0.0
 11
0.5416879482103525
 21
-0.4541015254911502
 31
0.0
  0
LINE
  5
D1
100
AcDbEntity
100
AcDbLine
  8
PHOENIX CONNECTORS
 62
256
370
-1
 48
1.0
  6
ByLayer
 10
-0.5906240447820963
 20
0.0000000000000003
 30
0.0
 11
0.5906240447820963
 21
-0.0000000000000003
 31
0.0
  0
LINE
  5
D2
100
AcDbEntity
100
AcDbLine
  8
PHOENIX CONNECTORS
 62
256
370
-1
 48
1.0
  6
ByLayer
 10
-0.5906240447820972
 20
-0.9062500000000029
 30
0.0
 11
0.5906240447820927
 21
-0.9062500000000004
 31
0.0
  0
LINE
  5
D3
100
AcDbEntity
100
AcDbLine
  8
PHOENIX CONNECTORS
 62
256
370
-1
 48
1.0
  6
ByLayer
 10
-0.5906240447820972
 20
-0.8750000000000167
 30
0.0
 11
0.5906240447820927
 21
-0.8749999999999893
 31
0.0
  0
LINE
  5
D4
100
AcDbEntity
100
AcDbLine
  8
PHOENIX CONNECTORS
 62
256
370
-1
 48
1.0
  6
ByLayer
 10
-0.5906240447820972
 20
-0.6074222480695209
 30
0.0
 11
0.5906240447820927
 21
-0.6074222480695217
 31
0.0
  0
LINE
  5
D5
100
AcDbEntity
100
AcDbLine
  8
PHOENIX CONNECTORS
 62
256
370
-1
 48
1.0
  6
ByLayer
 10
-0.5906240447820963
 20
0.0000000000000003
 30
0.0
 11
-0.5906240447820981
 21
-0.204713600472472
 31
0.0
  0
LINE
  5
D6
100
AcDbEntity
100
AcDbLine
  8
PHOENIX CONNECTORS
 62
256
370
-1
 48
1.0
  6
ByLayer
 10
-0.5906240447820972
 20
-0.4541015254911497
 30
0.0
 11
-0.5906240447820972
 21
-0.9062500000000029
 31
0.0
  0
LINE
  5
D7
100
AcDbEntity
100
AcDbLine
  8
PHOENIX CONNECTORS
 62
256
370
-1
 48
1.0
  6
ByLayer
 10
-0.4156250000000021
 20
-0.4184979577658035
 30
0.0
 11
-0.3656250000000005
 21
-0.4184979577658028
 31
0.0
  0
LINE
  5
D8
100
AcDbEntity
100
AcDbLine
  8
PHOENIX CONNECTORS
 62
256
370
-1
 48
1.0
  6
ByLayer
 10
-0.6107831852227506
 20
-0.464244432059409
 30
0.0
 11
-0.6107831852227514
 21
-0.1945706939042111
 31
0.0
  0
LINE
  5
D9
100
AcDbEntity
100
AcDbLine
  8
PHOENIX CONNECTORS
 62
256
370
-1
 48
1.0
  6
ByLayer
 10
-0.6107831852227514
 20
-0.1945706939042111
 30
0.0
 11
-0.5906240447820981
 21
-0.204713600472472
 31
0.0
  0
LINE
  5
DA
100
AcDbEntity
100
AcDbLine
  8
PHOENIX CONNECTORS
 62
256
370
-1
 48
1.0
  6
ByLayer
 10
-0.6107831852227506
 20
-0.464244432059409
 30
0.0
 11
-0.5906240447820972
 21
-0.4541015254911497
 31
0.0
  0
LINE
  5
DB
100
AcDbEntity
100
AcDbLine
  8
PHOENIX CONNECTORS
 62
256
370
-1
 48
1.0
  6
ByLayer
 10
-0.5906240447820972
 20
-0.2404932734604913
 30
0.0
 11
0.5906240447820936
 21
-0.2404932734604914
 31
0.0
  0
LINE
  5
DC
100
AcDbEntity
100
AcDbLine
  8
PHOENIX CONNECTORS
 62
256
370
-1
 48
1.0
  6
ByLayer
 10
-0.5906240447820981
 20
-0.3312174887779826
 30
0.0
 11
0.5906240447820945
 21
-0.3312174887779798
 31
0.0
  0
LINE
  5
DD
100
AcDbEntity
100
AcDbLine
  8
PHOENIX CONNECTORS
 62
256
370
-1
 48
1.0
  6
ByLayer
 10
-0.5906240447820972
 20
-0.2404932734604913
 30
0.0
 11
-0.5906240447820981
 21
-0.3312174887779826
 31
0.0
  0
LINE
  5
DE
100
AcDbEntity
100
AcDbLine
  8
PHOENIX CONNECTORS
 62
256
370
-1
 48
1.0
  6
ByLayer
 10
-0.4156250000000004
 20
-0.3312174887779802
 30
0.0
 11
-0.4156250000000004
 21
-0.6074222480695171
 31
0.0
  0
LINE
  5
DF
100
AcDbEntity
100
AcDbLine
  8
PHOENIX CONNECTORS
 62
256
370
-1
 48
1.0
  6
ByLayer
 10
-0.3656250000000005
 20
-0.3312174887779811
 30
0.0
 11
-0.3656250000000005
 21
-0.6074222480695235
 31
0.0
  0
CIRCLE
  5
E0
100
AcDbEntity
100
AcDbCircle
  8
PHOENIX CONNECTORS
 62
256
370
-1
 48
1.0
  6
ByLayer
 10
-0.4996726155998834
 20
-0.7404484923891432
 30
0.0
 40
0.08
  0
LINE
  5
E1
100
AcDbEntity
100
AcDbLine
  8
PHOENIX CONNECTORS
 62
256
370
-1
 48
1.0
  6
ByLayer
 10
-0.5097916030552332
 20
-0.8204484923891351
 30
0.0
 11
-0.5097916030552341
 21
-0.6604484923891421
 31
0.0
  0
LINE
  5
E2
100
AcDbEntity
100
AcDbLine
  8
PHOENIX CONNECTORS
 62
256
370
-1
 48
1.0
  6
ByLayer
 10
-0.4897916030552336
 20
-0.8204484923891591
 30
0.0
 11
-0.4897916030552327
 21
-0.6604484923891394
 31
0.0
  0
CIRCLE
  5
E3
100
AcDbEntity
100
AcDbCircle
  8
PHOENIX CONNECTORS
 62
256
370
-1
 48
1.0
  6
ByLayer
 10
-0.3043601155998825
 20
-0.7404484923891375
 30
0.0
 40
0.08
  0
LINE
  5
E4
100
AcDbEntity
100
AcDbLine
  8
PHOENIX CONNECTORS
 62
256
370
-1
 48
1.0
  6
ByLayer
 10
-0.3144791030552332
 20
-0.8204484923891313
 30
0.0
 11
-0.3144791030552323
 21
-0.6604484923891353
 31
0.0
  0
LINE
  5
E5
100
AcDbEntity
100
AcDbLine
  8
PHOENIX CONNECTORS
 62
256
370
-1
 48
1.0
  6
ByLayer
 10
-0.2944791030552336
 20
-0.820448492389146
 30
0.0
 11
-0.2944791030552327
 21
-0.6604484923891376
 31
0.0
  0
LINE
  5
E6
100
AcDbEntity
100
AcDbLine
  8
PHOENIX CONNECTORS
 62
256
370
-1
 48
1.0
  6
ByLayer
 10
-0.5906240447820972
 20
-0.4541015254911497
 30
0.0
 11
-0.4156250000000004
 21
-0.4541015254911505
 31
0.0
  0
LINE
  5
E7
100
AcDbEntity
100
AcDbLine
  8
PHOENIX CONNECTORS
 62
256
370
-1
 48
1.0
  6
ByLayer
 10
-0.3656250000000014
 20
-0.4541015254911487
 30
0.0
 11
0.3656249999999996
 21
-0.4541015254911507
 31
0.0
  0
LINE
  5
E8
100
AcDbEntity
100
AcDbLine
  8
PHOENIX CONNECTORS
 62
256
370
-1
 48
1.0
  6
ByLayer
 10
-0.5416879482103534
 20
-0.4541015254911496
 30
0.0
 11
-0.4397369792767307
 21
-0.454101525491149
 31
0.0
  0
LINE
  5
E9
100
AcDbEntity
100
AcDbLine
  8
PHOENIX CONNECTORS
 62
256
370
-1
 48
1.0
  6
ByLayer
 10
-0.5416879482103534
 20
-0.4098063217325793
 30
0.0
 11
-0.5416879482103534
 21
-0.4541015254911496
 31
0.0
  0
LINE
  5
EA
100
AcDbEntity
100
AcDbLine
  8
PHOENIX CONNECTORS
 62
256
370
-1
 48
1.0
  6
ByLayer
 10
-0.4397369792767307
 20
-0.4098063217325788
 30
0.0
 11
-0.5416879482103534
 21
-0.4098063217325793
 31
0.0
  0
LINE
  5
EB
100
AcDbEntity
100
AcDbLine
  8
PHOENIX CONNECTORS
 62
256
370
-1
 48
1.0
  6
ByLayer
 10
-0.4397369792767307
 20
-0.454101525491149
 30
0.0
 11
-0.4397369792767307
 21
-0.4098063217325788
 31
0.0
  0
LINE
  5
EC
100
AcDbEntity
100
AcDbLine
  8
PHOENIX CONNECTORS
 62
256
370
-1
 48
1.0
  6
ByLayer
 10
-0.2395620517896484
 20
-0.4541015254911496
 30
0.0
 11
-0.3415130207232693
 21
-0.4541015254911497
 31
0.0
  0
LINE
  5
ED
100
AcDbEntity
100
AcDbLine
  8
PHOENIX CONNECTORS
 62
256
370
-1
 48
1.0
  6
ByLayer
 10
-0.2395620517896484
 20
-0.4098063217325794
 30
0.0
 11
-0.2395620517896484
 21
-0.4541015254911496
 31
0.0
  0
LINE
  5
EE
100
AcDbEntity
100
AcDbLine
  8
PHOENIX CONNECTORS
 62
256
370
-1
 48
1.0
  6
ByLayer
 10
-0.3415130207232702
 20
-0.4098063217325799
 30
0.0
 11
-0.2395620517896484
 21
-0.4098063217325794
 31
0.0
  0
LINE
  5
EF
100
AcDbEntity
100
AcDbLine
  8
PHOENIX CONNECTORS
 62
256
370
-1
 48
1.0
  6
ByLayer
 10
-0.3415130207232693
 20
-0.4541015254911497
 30
0.0
 11
-0.3415130207232702
 21
-0.4098063217325799
 31
0.0
  0
CIRCLE
  5
F0
100
AcDbEntity
100
AcDbCircle
  8
PHOENIX CONNECTORS
 62
256
370
-1
 48
1.0
  6
ByLayer
 10
-0.1090476155998834
 20
-0.7404484923891432
 30
0.0
 40
0.08
  0
LINE
  5
F1
100
AcDbEntity
100
AcDbLine
  8
PHOENIX CONNECTORS
 62
256
370
-1
 48
1.0
  6
ByLayer
 10
-0.1191666030552332
 20
-0.8204484923891406
 30
0.0
 11
-0.1191666030552332
 21
-0.6604484923891411
 31
0.0
  0
LINE
  5
F2
100
AcDbEntity
100
AcDbLine
  8
PHOENIX CONNECTORS
 62
256
370
-1
 48
1.0
  6
ByLayer
 10
-0.0991666030552336
 20
-0.820448492389142
 30
0.0
 11
-0.0991666030552336
 21
-0.6604484923891398
 31
0.0
  0
CIRCLE
  5
F3
100
AcDbEntity
100
AcDbCircle
  8
PHOENIX CONNECTORS
 62
256
370
-1
 48
1.0
  6
ByLayer
 10
0.0862648844001166
 20
-0.7404484923891397
 30
0.0
 40
0.08
  0
LINE
  5
F4
100
AcDbEntity
100
AcDbLine
  8
PHOENIX CONNECTORS
 62
256
370
-1
 48
1.0
  6
ByLayer
 10
0.0761458969447668
 20
-0.8204484923891433
 30
0.0
 11
0.0761458969447668
 21
-0.6604484923891418
 31
0.0
  0
LINE
  5
F5
100
AcDbEntity
100
AcDbLine
  8
PHOENIX CONNECTORS
 62
256
370
-1
 48
1.0
  6
ByLayer
 10
0.0961458969447664
 20
-0.820448492389142
 30
0.0
 11
0.0961458969447664
 21
-0.6604484923891407
 31
0.0
  0
LINE
  5
F6
100
AcDbEntity
100
AcDbLine
  8
PHOENIX CONNECTORS
 62
256
370
-1
 48
1.0
  6
ByLayer
 10
-0.1510629482103534
 20
-0.4541015254911505
 30
0.0
 11
-0.0491119792767316
 21
-0.4541015254911522
 31
0.0
  0
LINE
  5
F7
100
AcDbEntity
100
AcDbLine
  8
PHOENIX CONNECTORS
 62
256
370
-1
 48
1.0
  6
ByLayer
 10
-0.1510629482103525
 20
-0.4098063217325788
 30
0.0
 11
-0.1510629482103534
 21
-0.4541015254911505
 31
0.0
  0
LINE
  5
F8
100
AcDbEntity
100
AcDbLine
  8
PHOENIX CONNECTORS
 62
256
370
-1
 48
1.0
  6
ByLayer
 10
-0.0491119792767316
 20
-0.4098063217325794
 30
0.0
 11
-0.1510629482103525
 21
-0.4098063217325788
 31
0.0
  0
LINE
  5
F9
100
AcDbEntity
100
AcDbLine
  8
PHOENIX CONNECTORS
 62
256
370
-1
 48
1.0
  6
ByLayer
 10
-0.0491119792767316
 20
-0.4541015254911522
 30
0.0
 11
-0.0491119792767316
 21
-0.4098063217325794
 31
0.0
  0
LINE
  5
FA
100
AcDbEntity
100
AcDbLine
  8
PHOENIX CONNECTORS
 62
256
370
-1
 48
1.0
  6
ByLayer
 10
0.0491119792767307
 20
-0.409806321732578
 30
0.0
 11
0.1510629482103516
 21
-0.409806321732581
 31
0.0
  0
LINE
  5
FB
100
AcDbEntity
100
AcDbLine
  8
PHOENIX CONNECTORS
 62
256
370
-1
 48
1.0
  6
ByLayer
 10
0.0491119792767298
 20
-0.4541015254911518
 30
0.0
 11
0.0491119792767307
 21
-0.409806321732578
 31
0.0
  0
LINE
  5
FC
100
AcDbEntity
100
AcDbLine
  8
PHOENIX CONNECTORS
 62
256
370
-1
 48
1.0
  6
ByLayer
 10
0.1510629482103516
 20
-0.4541015254911506
 30
0.0
 11
0.0491119792767298
 21
-0.4541015254911518
 31
0.0
  0
LINE
  5
FD
100
AcDbEntity
100
AcDbLine
  8
PHOENIX CONNECTORS
 62
256
370
-1
 48
1.0
  6
ByLayer
 10
0.1510629482103516
 20
-0.409806321732581
 30
0.0
 11
0.1510629482103516
 21
-0.4541015254911506
 31
0.0
  0
ENDBLK
  5
FE
100
AcDbEntity
  8
0
100
AcDbBlockEnd
  0
BLOCK
  5
FF
100
AcDbEntity
  8
0
100
AcDbBlockBegin
  2
JACK PROGRAMMING
 70
0
 10
0.0
 20
0.0
 30
0.0
  3
JACK PROGRAMMING
  1

  0
LINE
  5
100
100
AcDbEntity
100
AcDbLine
  8
HARDWARE
 62
256
370
-1
 48
1.0
  6
ByLayer
 10
0.4800000000000004
 20
0.1749999999999989
 30
0.0
 11
0.0
 21
0.1749999999999972
 31
0.0
  0
LINE
  5
101
100
AcDbEntity
100
AcDbLine
  8
HARDWARE
 62
256
370
-1
 48
1.0
  6
ByLayer
 10
0.4800000000000004
 20
-0.1750000000000007
 30
0.0
 11
0.0
 21
-0.1749999999999989
 31
0.0
  0
LINE
  5
102
100
AcDbEntity
100
AcDbLine
  8
HARDWARE
 62
256
370
-1
 48
1.0
  6
ByLayer
 10
0.4800000000000004
 20
0.1749999999999989
 30
0.0
 11
0.4800000000000004
 21
-0.1750000000000007
 31
0.0
  0
LINE
  5
103
100
AcDbEntity
100
AcDbLine
  8
HARDWARE
 62
256
370
-1
 48
1.0
  6
ByLayer
 10
0.0
 20
0.1749999999999972
 30
0.0
 11
0.0
 21
-0.1749999999999989
 31
0.0
  0
LINE
  5
104
100
AcDbEntity
100
AcDbLine
  8
HARDWARE
 62
256
370
-1
 48
1.0
  6
ByLayer
 10
0.4800000000000004
 20
-0.0899999999999999
 30
0.0
 11
0.5802363122528238
 21
-0.0899999999999999
 31
0.0
  0
LINE
  5
105
100
AcDbEntity
100
AcDbLine
  8
HARDWARE
 62
256
370
-1
 48
1.0
  6
ByLayer
 10
0.4800000000000004
 20
0.0899999999999999
 30
0.0
 11
0.5802363122528238
 21
0.0899999999999999
 31
0.0
  0
LINE
  5
106
100
AcDbEntity
100
AcDbLine
  8
HARDWARE
 62
256
370
-1
 48
1.0
  6
ByLayer
 10
0.5802363122528238
 20
0.0899999999999999
 30
0.0
 11
0.5802363122528238
 21
-0.0899999999999999
 31
0.0
  0
ENDBLK
  5
107
100
AcDbEntity
  8
0
100
AcDbBlockEnd
  0
BLOCK
  5
108
100
AcDbEntity
  8
0
100
AcDbBlockBegin
  2
HARDWARE SCREW PHILIPS
 70
0
 10
0.0
 20
0.0
 30
0.0
  3
HARDWARE SCREW PHILIPS
  1

  0
CIRCLE
  5
109
100
AcDbEntity
100
AcDbCircle
  8
HARDWARE
 62
256
370
-1
 48
1.0
  6
ByLayer
 10
0.0
 20
0.0
 30
0.0
 40
0.1226974838624688
  0
LINE
  5
10A
100
AcDbEntity
100
AcDbLine
  8
HARDWARE
 62
256
370
-1
 48
1.0
  6
ByLayer
 10
0.0199999999999996
 20
-0.0199999999999996
 30
0.0
 11
0.1017050141546161
 21
-0.0199999999999996
 31
0.0
  0
LINE
  5
10B
100
AcDbEntity
100
AcDbLine
  8
HARDWARE
 62
256
370
-1
 48
1.0
  6
ByLayer
 10
-0.1017050141546161
 20
0.0199999999999996
 30
0.0
 11
-0.0200000000000031
 21
0.0199999999999996
 31
0.0
  0
LINE
  5
10C
100
AcDbEntity
100
AcDbLine
  8
HARDWARE
 62
256
370
-1
 48
1.0
  6
ByLayer
 10
-0.1017050141546161
 20
-0.0199999999999996
 30
0.0
 11
-0.0200000000000031
 21
-0.0199999999999996
 31
0.0
  0
LINE
  5
10D
100
AcDbEntity
100
AcDbLine
  8
HARDWARE
 62
256
370
-1
 48
1.0
  6
ByLayer
 10
0.0199999999999996
 20
0.0199999999999996
 30
0.0
 11
0.1017050141546161
 21
0.0199999999999996
 31
0.0
  0
LINE
  5
10E
100
AcDbEntity
100
AcDbLine
  8
HARDWARE
 62
256
370
-1
 48
1.0
  6
ByLayer
 10
-0.0200000000000014
 20
0.1017050141546161
 30
0.0
 11
-0.0200000000000014
 21
0.0199999999999996
 31
0.0
  0
LINE
  5
10F
100
AcDbEntity
100
AcDbLine
  8
HARDWARE
 62
256
370
-1
 48
1.0
  6
ByLayer
 10
0.0199999999999996
 20
0.101705014154617
 30
0.0
 11
0.0199999999999996
 21
0.0199999999999996
 31
0.0
  0
LINE
  5
110
100
AcDbEntity
100
AcDbLine
  8
HARDWARE
 62
256
370
-1
 48
1.0
  6
ByLayer
 10
-0.0200000000000014
 20
-0.0199999999999987
 30
0.0
 11
-0.0200000000000014
 21
-0.1017050141546152
 31
0.0
  0
LINE
  5
111
100
AcDbEntity
100
AcDbLine
  8
HARDWARE
 62
256
370
-1
 48
1.0
  6
ByLayer
 10
0.0199999999999996
 20
-0.0199999999999987
 30
0.0
 11
0.0199999999999996
 21
-0.1017050141546161
 31
0.0
  0
LINE
  5
112
100
AcDbEntity
100
AcDbLine
  8
HARDWARE
 62
256
370
-1
 48
1.0
  6
ByLayer
 10
-0.0200000000000014
 20
0.1017050141546152
 30
0.0
 11
0.0199999999999996
 21
0.1017050141546161
 31
0.0
  0
LINE
  5
113
100
AcDbEntity
100
AcDbLine
  8
HARDWARE
 62
256
370
-1
 48
1.0
  6
ByLayer
 10
0.1017050141546161
 20
0.0199999999999996
 30
0.0
 11
0.1017050141546161
 21
-0.0199999999999996
 31
0.0
  0
LINE
  5
114
100
AcDbEntity
100
AcDbLine
  8
HARDWARE
 62
256
370
-1
 48
1.0
  6
ByLayer
 10
0.0199999999999996
 20
-0.1017050141546161
 30
0.0
 11
-0.0200000000000014
 21
-0.1017050141546152
 31
0.0
  0
LINE
  5
115
100
AcDbEntity
100
AcDbLine
  8
HARDWARE
 62
256
370
-1
 48
1.0
  6
ByLayer
 10
-0.1017050141546161
 20
-0.0199999999999996
 30
0.0
 11
-0.1017050141546161
 21
0.0199999999999996
 31
0.0
  0
ENDBLK
  5
116
100
AcDbEntity
  8
0
100
AcDbBlockEnd
  0
BLOCK
  5
117
100
AcDbEntity
  8
0
100
AcDbBlockBegin
  2
CONN SCREW 2 PIN
 70
0
 10
0.0
 20
0.0
 30
0.0
  3
CONN SCREW 2 PIN
  1

  0
LINE
  5
118
100
AcDbEntity
100
AcDbLine
  8
PHOENIX CONNECTORS
 62
256
370
-1
 48
1.0
  6
ByLayer
 10
0.5000000000000018
 20
0.2001047809162557
 30
0.0
 11
0.5000000000000018
 21
-0.1998933086479369
 31
0.0
  0
LINE
  5
119
100
AcDbEntity
100
AcDbLine
  8
PHOENIX CONNECTORS
 62
256
370
-1
 48
1.0
  6
ByLayer
 10
-0.4062499999999982
 20
0.2001047809162553
 30
0.0
 11
-0.4062499999999982
 21
-0.1998933086479355
 31
0.0
  0
LINE
  5
11A
100
AcDbEntity
100
AcDbLine
  8
PHOENIX CONNECTORS
 62
256
370
-1
 48
1.0
  6
ByLayer
 10
-0.3749999999999982
 20
0.2001047809162553
 30
0.0
 11
-0.3749999999999982
 21
-0.1998933086479355
 31
0.0
  0
LINE
  5
11B
100
AcDbEntity
100
AcDbLine
  8
PHOENIX CONNECTORS
 62
256
370
-1
 48
1.0
  6
ByLayer
 10
-0.1074222480695202
 20
0.2001047809162557
 30
0.0
 11
-0.1074222480695202
 21
-0.1998933086479351
 31
0.0
  0
LINE
  5
11C
100
AcDbEntity
100
AcDbLine
  8
PHOENIX CONNECTORS
 62
256
370
-1
 48
1.0
  6
ByLayer
 10
0.5000000000000018
 20
0.2001047809162557
 30
0.0
 11
0.2952863995275319
 21
0.2001047809162557
 31
0.0
  0
LINE
  5
11D
100
AcDbEntity
100
AcDbLine
  8
PHOENIX CONNECTORS
 62
256
370
-1
 48
1.0
  6
ByLayer
 10
0.0458984745088458
 20
0.2001047809162557
 30
0.0
 11
-0.4062499999999982
 21
0.2001047809162553
 31
0.0
  0
LINE
  5
11E
100
AcDbEntity
100
AcDbLine
  8
PHOENIX CONNECTORS
 62
256
370
-1
 48
1.0
  6
ByLayer
 10
0.5000000000000018
 20
-0.1998933086479369
 30
0.0
 11
0.2952863995275319
 21
-0.1998933086479351
 31
0.0
  0
LINE
  5
11F
100
AcDbEntity
100
AcDbLine
  8
PHOENIX CONNECTORS
 62
256
370
-1
 48
1.0
  6
ByLayer
 10
0.0458984745088458
 20
-0.1998933086479351
 30
0.0
 11
-0.4062499999999982
 21
-0.1998933086479338
 31
0.0
  0
LINE
  5
120
100
AcDbEntity
100
AcDbLine
  8
PHOENIX CONNECTORS
 62
256
370
-1
 48
1.0
  6
ByLayer
 10
0.0815020422341952
 20
0.0251057361341598
 30
0.0
 11
0.0815020422341952
 21
-0.0248942638658409
 31
0.0
  0
LINE
  5
121
100
AcDbEntity
100
AcDbLine
  8
PHOENIX CONNECTORS
 62
256
370
-1
 48
1.0
  6
ByLayer
 10
0.035755567940587
 20
0.22026392135691
 30
0.0
 11
0.3054293060957907
 21
0.22026392135691
 31
0.0
  0
LINE
  5
122
100
AcDbEntity
100
AcDbLine
  8
PHOENIX CONNECTORS
 62
256
370
-1
 48
1.0
  6
ByLayer
 10
0.3054293060957907
 20
0.22026392135691
 30
0.0
 11
0.2952863995275319
 21
0.2001047809162557
 31
0.0
  0
LINE
  5
123
100
AcDbEntity
100
AcDbLine
  8
PHOENIX CONNECTORS
 62
256
370
-1
 48
1.0
  6
ByLayer
 10
0.035755567940587
 20
0.22026392135691
 30
0.0
 11
0.0458984745088458
 21
0.2001047809162557
 31
0.0
  0
LINE
  5
124
100
AcDbEntity
100
AcDbLine
  8
PHOENIX CONNECTORS
 62
256
370
-1
 48
1.0
  6
ByLayer
 10
0.035755567940587
 20
-0.2200524490885911
 30
0.0
 11
0.3054293060957907
 21
-0.2200524490885911
 31
0.0
  0
LINE
  5
125
100
AcDbEntity
100
AcDbLine
  8
PHOENIX CONNECTORS
 62
256
370
-1
 48
1.0
  6
ByLayer
 10
0.3054293060957907
 20
-0.2200524490885911
 30
0.0
 11
0.2952863995275319
 21
-0.1998933086479369
 31
0.0
  0
LINE
  5
126
100
AcDbEntity
100
AcDbLine
  8
PHOENIX CONNECTORS
 62
256
370
-1
 48
1.0
  6
ByLayer
 10
0.035755567940587
 20
-0.2200524490885911
 30
0.0
 11
0.0458984745088458
 21
-0.1998933086479369
 31
0.0
  0
LINE
  5
127
100
AcDbEntity
100
AcDbLine
  8
PHOENIX CONNECTORS
 62
256
370
-1
 48
1.0
  6
ByLayer
 10
0.2595067265395112
 20
0.2001047809162557
 30
0.0
 11
0.2595067265395095
 21
-0.1998933086479351
 31
0.0
  0
LINE
  5
128
100
AcDbEntity
100
AcDbLine
  8
PHOENIX CONNECTORS
 62
256
370
-1
 48
1.0
  6
ByLayer
 10
0.1687825112220178
 20
0.2001047809162557
 30
0.0
 11
0.1687825112220178
 21
-0.1998933086479351
 31
0.0
  0
LINE
  5
129
100
AcDbEntity
100
AcDbLine
  8
PHOENIX CONNECTORS
 62
256
370
-1
 48
1.0
  6
ByLayer
 10
0.2595067265395112
 20
0.2001047809162557
 30
0.0
 11
0.1687825112220178
 21
0.2001047809162557
 31
0.0
  0
LINE
  5
12A
100
AcDbEntity
100
AcDbLine
  8
PHOENIX CONNECTORS
 62
256
370
-1
 48
1.0
  6
ByLayer
 10
0.2595067265395095
 20
-0.1998933086479351
 30
0.0
 11
0.1687825112220178
 21
-0.1998933086479351
 31
0.0
  0
LINE
  5
12B
100
AcDbEntity
100
AcDbLine
  8
PHOENIX CONNECTORS
 62
256
370
-1
 48
1.0
  6
ByLayer
 10
0.1687825112220178
 20
0.0251057361341598
 30
0.0
 11
-0.1074222480695202
 21
0.0251057361341598
 31
0.0
  0
LINE
  5
12C
100
AcDbEntity
100
AcDbLine
  8
PHOENIX CONNECTORS
 62
256
370
-1
 48
1.0
  6
ByLayer
 10
0.1687825112220178
 20
-0.0248942638658409
 30
0.0
 11
-0.1074222480695202
 21
-0.0248942638658409
 31
0.0
  0
CIRCLE
  5
12D
100
AcDbEntity
100
AcDbCircle
  8
PHOENIX CONNECTORS
 62
256
370
-1
 48
1.0
  6
ByLayer
 10
-0.2404484923891435
 20
0.1091533517340415
 30
0.0
 40
0.08
  0
LINE
  5
12E
100
AcDbEntity
100
AcDbLine
  8
PHOENIX CONNECTORS
 62
256
370
-1
 48
1.0
  6
ByLayer
 10
-0.3204484923891435
 20
0.1192723391893913
 30
0.0
 11
-0.1604484923891434
 21
0.1192723391893913
 31
0.0
  0
LINE
  5
12F
100
AcDbEntity
100
AcDbLine
  8
PHOENIX CONNECTORS
 62
256
370
-1
 48
1.0
  6
ByLayer
 10
-0.3204484923891435
 20
0.0992723391893917
 30
0.0
 11
-0.1604484923891434
 21
0.0992723391893917
 31
0.0
  0
CIRCLE
  5
130
100
AcDbEntity
100
AcDbCircle
  8
PHOENIX CONNECTORS
 62
256
370
-1
 48
1.0
  6
ByLayer
 10
-0.2404484923891435
 20
-0.0861591482659585
 30
0.0
 40
0.08
  0
LINE
  5
131
100
AcDbEntity
100
AcDbLine
  8
PHOENIX CONNECTORS
 62
256
370
-1
 48
1.0
  6
ByLayer
 10
-0.3204484923891435
 20
-0.0760401608106087
 30
0.0
 11
-0.1604484923891434
 21
-0.0760401608106087
 31
0.0
  0
LINE
  5
132
100
AcDbEntity
100
AcDbLine
  8
PHOENIX CONNECTORS
 62
256
370
-1
 48
1.0
  6
ByLayer
 10
-0.3204484923891435
 20
-0.0960401608106083
 30
0.0
 11
-0.1604484923891434
 21
-0.0960401608106083
 31
0.0
  0
LINE
  5
133
100
AcDbEntity
100
AcDbLine
  8
PHOENIX CONNECTORS
 62
256
370
-1
 48
1.0
  6
ByLayer
 10
0.0458984745088458
 20
0.2001047809162557
 30
0.0
 11
0.0458984745088458
 21
0.0251057361341598
 31
0.0
  0
LINE
  5
134
100
AcDbEntity
100
AcDbLine
  8
PHOENIX CONNECTORS
 62
256
370
-1
 48
1.0
  6
ByLayer
 10
0.0458984745088458
 20
-0.0248942638658392
 30
0.0
 11
0.0458984745088458
 21
-0.1998933086479351
 31
0.0
  0
LWPOLYLINE
  5
135
  8
PHOENIX CONNECTORS
 62
256
370
-1
 48
1.0
  6
ByLayer
100
AcDbEntity
100
AcDbPolyline
 90
4
 70
1
 10
0.0458984745088458
 20
0.0492177154108902
 30
0.0
 10
0.0901936782674166
 20
0.0492177154108902
 30
0.0
 10
0.0901936782674166
 20
0.1511686843445119
 30
0.0
 10
0.0458984745088458
 20
0.1511686843445119
 30
0.0
  0
LWPOLYLINE
  5
136
  8
PHOENIX CONNECTORS
 62
256
370
-1
 48
1.0
  6
ByLayer
100
AcDbEntity
100
AcDbPolyline
 90
4
 70
1
 10
0.0458984745088458
 20
-0.0490062431425713
 30
0.0
 10
0.0901936782674166
 20
-0.0490062431425713
 30
0.0
 10
0.0901936782674166
 20
-0.1509572120761931
 30
0.0
 10
0.0458984745088458
 20
-0.1509572120761931
 30
0.0
  0
ENDBLK
  5
137
100
AcDbEntity
  8
0
100
AcDbBlockEnd
  0
BLOCK
  5
138
100
AcDbEntity
  8
0
100
AcDbBlockBegin
  2
CONN SCREW 5 PIN
 70
0
 10
0.0
 20
0.0
 30
0.0
  3
CONN SCREW 5 PIN
  1

  0
LINE
  5
139
100
AcDbEntity
100
AcDbLine
  8
PHOENIX CONNECTORS
 62
256
370
-1
 48
1.0
  6
ByLayer
 10
0.4929677947820963
 20
0.0000000000000009
 30
0.0
 11
0.4929677947820945
 21
-0.2047136004724717
 31
0.0
  0
LINE
  5
13A
100
AcDbEntity
100
AcDbLine
  8
PHOENIX CONNECTORS
 62
256
370
-1
 48
1.0
  6
ByLayer
 10
0.4929677947820945
 20
-0.4541015254911651
 30
0.0
 11
0.4929677947820927
 21
-0.9062500000000069
 31
0.0
  0
LINE
  5
13B
100
AcDbEntity
100
AcDbLine
  8
PHOENIX CONNECTORS
 62
256
370
-1
 48
1.0
  6
ByLayer
 10
0.2679687499999996
 20
-0.418497957765815
 30
0.0
 11
0.3179687500000004
 21
-0.4184979577658123
 31
0.0
  0
LINE
  5
13C
100
AcDbEntity
100
AcDbLine
  8
PHOENIX CONNECTORS
 62
256
370
-1
 48
1.0
  6
ByLayer
 10
0.5131269352227523
 20
-0.4642444320594168
 30
0.0
 11
0.5131269352227523
 21
-0.1945706939042116
 31
0.0
  0
LINE
  5
13D
100
AcDbEntity
100
AcDbLine
  8
PHOENIX CONNECTORS
 62
256
370
-1
 48
1.0
  6
ByLayer
 10
0.5131269352227523
 20
-0.1945706939042116
 30
0.0
 11
0.4929677947820981
 21
-0.2047136004724719
 31
0.0
  0
LINE
  5
13E
100
AcDbEntity
100
AcDbLine
  8
PHOENIX CONNECTORS
 62
256
370
-1
 48
1.0
  6
ByLayer
 10
0.5131269352227523
 20
-0.4642444320594168
 30
0.0
 11
0.4929677947820963
 21
-0.4541015254911591
 31
0.0
  0
LINE
  5
13F
100
AcDbEntity
100
AcDbLine
  8
PHOENIX CONNECTORS
 62
256
370
-1
 48
1.0
  6
ByLayer
 10
0.4929677947820945
 20
-0.2404932734604954
 30
0.0
 11
0.4929677947820945
 21
-0.3312174887779937
 31
0.0
  0
LINE
  5
140
100
AcDbEntity
100
AcDbLine
  8
PHOENIX CONNECTORS
 62
256
370
-1
 48
1.0
  6
ByLayer
 10
0.2679687499999996
 20
-0.331217488777994
 30
0.0
 11
0.2679687499999996
 21
-0.6074222480695262
 31
0.0
  0
LINE
  5
141
100
AcDbEntity
100
AcDbLine
  8
PHOENIX CONNECTORS
 62
256
370
-1
 48
1.0
  6
ByLayer
 10
0.3179687500000004
 20
-0.3312174887779902
 30
0.0
 11
0.3179687500000004
 21
-0.6074222480695248
 31
0.0
  0
CIRCLE
  5
142
100
AcDbEntity
100
AcDbCircle
  8
PHOENIX CONNECTORS
 62
256
370
-1
 48
1.0
  6
ByLayer
 10
0.1839211344001175
 20
-0.7404484923891479
 30
0.0
 40
0.08
  0
LINE
  5
143
100
AcDbEntity
100
AcDbLine
  8
PHOENIX CONNECTORS
 62
256
370
-1
 48
1.0
  6
ByLayer
 10
0.1738021469447677
 20
-0.8204484923891529
 30
0.0
 11
0.1738021469447677
 21
-0.6604484923891512
 31
0.0
  0
LINE
  5
144
100
AcDbEntity
100
AcDbLine
  8
PHOENIX CONNECTORS
 62
256
370
-1
 48
1.0
  6
ByLayer
 10
0.1938021469447673
 20
-0.820448492389154
 30
0.0
 11
0.1938021469447673
 21
-0.6604484923891472
 31
0.0
  0
CIRCLE
  5
145
100
AcDbEntity
100
AcDbCircle
  8
PHOENIX CONNECTORS
 62
256
370
-1
 48
1.0
  6
ByLayer
 10
0.3792336344001175
 20
-0.7404484923891546
 30
0.0
 40
0.08
  0
LINE
  5
146
100
AcDbEntity
100
AcDbLine
  8
PHOENIX CONNECTORS
 62
256
370
-1
 48
1.0
  6
ByLayer
 10
0.3691146469447677
 20
-0.8204484923891497
 30
0.0
 11
0.3691146469447677
 21
-0.6604484923891496
 31
0.0
  0
LINE
  5
147
100
AcDbEntity
100
AcDbLine
  8
PHOENIX CONNECTORS
 62
256
370
-1
 48
1.0
  6
ByLayer
 10
0.3891146469447673
 20
-0.8204484923891484
 30
0.0
 11
0.3891146469447673
 21
-0.6604484923891507
 31
0.0
  0
LINE
  5
148
100
AcDbEntity
100
AcDbLine
  8
PHOENIX CONNECTORS
 62
256
370
-1
 48
1.0
  6
ByLayer
 10
0.3179687499999968
 20
-0.4541015254911642
 30
0.0
 11
0.4929677947820945
 21
-0.4541015254911651
 31
0.0
  0
LINE
  5
149
100
AcDbEntity
100
AcDbLine
  8
PHOENIX CONNECTORS
 62
256
370
-1
 48
1.0
  6
ByLayer
 10
0.2438567707232693
 20
-0.4541015254911565
 30
0.0
 11
0.2438567707232693
 21
-0.409806321732594
 31
0.0
  0
LINE
  5
14A
100
AcDbEntity
100
AcDbLine
  8
PHOENIX CONNECTORS
 62
256
370
-1
 48
1.0
  6
ByLayer
 10
0.1419058017896475
 20
-0.4098063217325889
 30
0.0
 11
0.1419058017896475
 21
-0.4541015254911602
 31
0.0
  0
LINE
  5
14B
100
AcDbEntity
100
AcDbLine
  8
PHOENIX CONNECTORS
 62
256
370
-1
 48
1.0
  6
ByLayer
 10
0.2438567707232693
 20
-0.409806321732594
 30
0.0
 11
0.1419058017896475
 21
-0.4098063217325889
 31
0.0
  0
LINE
  5
14C
100
AcDbEntity
100
AcDbLine
  8
PHOENIX CONNECTORS
 62
256
370
-1
 48
1.0
  6
ByLayer
 10
0.1419058017896475
 20
-0.4541015254911602
 30
0.0
 11
0.2438567707232693
 21
-0.4541015254911565
 31
0.0
  0
LINE
  5
14D
100
AcDbEntity
100
AcDbLine
  8
PHOENIX CONNECTORS
 62
256
370
-1
 48
1.0
  6
ByLayer
 10
0.4440316982103525
 20
-0.4098063217325876
 30
0.0
 11
0.4440316982103525
 21
-0.4541015254911582
 31
0.0
  0
LINE
  5
14E
100
AcDbEntity
100
AcDbLine
  8
PHOENIX CONNECTORS
 62
256
370
-1
 48
1.0
  6
ByLayer
 10
0.3420807292767307
 20
-0.4098063217325896
 30
0.0
 11
0.4440316982103525
 21
-0.4098063217325876
 31
0.0
  0
LINE
  5
14F
100
AcDbEntity
100
AcDbLine
  8
PHOENIX CONNECTORS
 62
256
370
-1
 48
1.0
  6
ByLayer
 10
0.4440316982103525
 20
-0.4541015254911582
 30
0.0
 11
0.3420807292767307
 21
-0.4541015254911571
 31
0.0
  0
LINE
  5
150
100
AcDbEntity
100
AcDbLine
  8
PHOENIX CONNECTORS
 62
256
370
-1
 48
1.0
  6
ByLayer
 10
0.3420807292767307
 20
-0.4541015254911571
 30
0.0
 11
0.3420807292767307
 21
-0.4098063217325896
 31
0.0
  0
LINE
  5
151
100
AcDbEntity
100
AcDbLine
  8
PHOENIX CONNECTORS
 62
256
370
-1
 48
1.0
  6
ByLayer
 10
-0.4929677947820963
 20
-0.0000000000000011
 30
0.0
 11
0.4929677947820963
 21
0.0000000000000009
 31
0.0
  0
LINE
  5
152
100
AcDbEntity
100
AcDbLine
  8
PHOENIX CONNECTORS
 62
256
370
-1
 48
1.0
  6
ByLayer
 10
-0.4929677947820945
 20
-0.9062500000000004
 30
0.0
 11
0.492967794782091
 21
-0.9062500000000133
 31
0.0
  0
LINE
  5
153
100
AcDbEntity
100
AcDbLine
  8
PHOENIX CONNECTORS
 62
256
370
-1
 48
1.0
  6
ByLayer
 10
-0.4929677947820945
 20
-0.8750000000000018
 30
0.0
 11
0.4929677947820945
 21
-0.875000000000002
 31
0.0
  0
LINE
  5
154
100
AcDbEntity
100
AcDbLine
  8
PHOENIX CONNECTORS
 62
256
370
-1
 48
1.0
  6
ByLayer
 10
-0.4929677947820981
 20
-0.6074222480695259
 30
0.0
 11
0.4929677947820945
 21
-0.6074222480695317
 31
0.0
  0
LINE
  5
155
100
AcDbEntity
100
AcDbLine
  8
PHOENIX CONNECTORS
 62
256
370
-1
 48
1.0
  6
ByLayer
 10
-0.4929677947820963
 20
-0.0000000000000011
 30
0.0
 11
-0.4929677947820963
 21
-0.2047136004724717
 31
0.0
  0
LINE
  5
156
100
AcDbEntity
100
AcDbLine
  8
PHOENIX CONNECTORS
 62
256
370
-1
 48
1.0
  6
ByLayer
 10
-0.4929677947820981
 20
-0.4541015254911642
 30
0.0
 11
-0.4929677947820945
 21
-0.9062500000000004
 31
0.0
  0
LINE
  5
157
100
AcDbEntity
100
AcDbLine
  8
PHOENIX CONNECTORS
 62
256
370
-1
 48
1.0
  6
ByLayer
 10
-0.3179687500000004
 20
-0.418497957765817
 30
0.0
 11
-0.2679687499999996
 21
-0.4184979577658134
 31
0.0
  0
LINE
  5
158
100
AcDbEntity
100
AcDbLine
  8
PHOENIX CONNECTORS
 62
256
370
-1
 48
1.0
  6
ByLayer
 10
-0.5131269352227506
 20
-0.4642444320594179
 30
0.0
 11
-0.5131269352227506
 21
-0.1945706939042156
 31
0.0
  0
LINE
  5
159
100
AcDbEntity
100
AcDbLine
  8
PHOENIX CONNECTORS
 62
256
370
-1
 48
1.0
  6
ByLayer
 10
-0.5131269352227506
 20
-0.1945706939042156
 30
0.0
 11
-0.4929677947820963
 21
-0.2047136004724717
 31
0.0
  0
LINE
  5
15A
100
AcDbEntity
100
AcDbLine
  8
PHOENIX CONNECTORS
 62
256
370
-1
 48
1.0
  6
ByLayer
 10
-0.5131269352227506
 20
-0.4642444320594179
 30
0.0
 11
-0.4929677947820981
 21
-0.4541015254911642
 31
0.0
  0
LINE
  5
15B
100
AcDbEntity
100
AcDbLine
  8
PHOENIX CONNECTORS
 62
256
370
-1
 48
1.0
  6
ByLayer
 10
-0.4929677947820981
 20
-0.2404932734604985
 30
0.0
 11
0.4929677947820945
 21
-0.2404932734604954
 31
0.0
  0
LINE
  5
15C
100
AcDbEntity
100
AcDbLine
  8
PHOENIX CONNECTORS
 62
256
370
-1
 48
1.0
  6
ByLayer
 10
-0.4929677947820963
 20
-0.3312174887779875
 30
0.0
 11
0.4929677947820945
 21
-0.3312174887779937
 31
0.0
  0
LINE
  5
15D
100
AcDbEntity
100
AcDbLine
  8
PHOENIX CONNECTORS
 62
256
370
-1
 48
1.0
  6
ByLayer
 10
-0.4929677947820981
 20
-0.2404932734604985
 30
0.0
 11
-0.4929677947820963
 21
-0.3312174887779875
 31
0.0
  0
LINE
  5
15E
100
AcDbEntity
100
AcDbLine
  8
PHOENIX CONNECTORS
 62
256
370
-1
 48
1.0
  6
ByLayer
 10
-0.3179687500000004
 20
-0.3312174887779897
 30
0.0
 11
-0.3179687500000004
 21
-0.6074222480695259
 31
0.0
  0
LINE
  5
15F
100
AcDbEntity
100
AcDbLine
  8
PHOENIX CONNECTORS
 62
256
370
-1
 48
1.0
  6
ByLayer
 10
-0.2679687499999996
 20
-0.3312174887779902
 30
0.0
 11
-0.2679687499999996
 21
-0.6074222480695248
 31
0.0
  0
CIRCLE
  5
160
100
AcDbEntity
100
AcDbCircle
  8
PHOENIX CONNECTORS
 62
256
370
-1
 48
1.0
  6
ByLayer
 10
-0.4020163655998825
 20
-0.7404484923891495
 30
0.0
 40
0.08
  0
LINE
  5
161
100
AcDbEntity
100
AcDbLine
  8
PHOENIX CONNECTORS
 62
256
370
-1
 48
1.0
  6
ByLayer
 10
-0.4121353530552323
 20
-0.8204484923891475
 30
0.0
 11
-0.4121353530552323
 21
-0.6604484923891443
 31
0.0
  0
LINE
  5
162
100
AcDbEntity
100
AcDbLine
  8
PHOENIX CONNECTORS
 62
256
370
-1
 48
1.0
  6
ByLayer
 10
-0.3921353530552327
 20
-0.8204484923891542
 30
0.0
 11
-0.3921353530552327
 21
-0.6604484923891487
 31
0.0
  0
LINE
  5
163
100
AcDbEntity
100
AcDbLine
  8
PHOENIX CONNECTORS
 62
256
370
-1
 48
1.0
  6
ByLayer
 10
-0.4929677947820981
 20
-0.4541015254911642
 30
0.0
 11
-0.3179687500000004
 21
-0.4541015254911662
 31
0.0
  0
LINE
  5
164
100
AcDbEntity
100
AcDbLine
  8
PHOENIX CONNECTORS
 62
256
370
-1
 48
1.0
  6
ByLayer
 10
-0.2679687500000032
 20
-0.4541015254911676
 30
0.0
 11
0.2679687499999996
 21
-0.4541015254911556
 31
0.0
  0
LINE
  5
165
100
AcDbEntity
100
AcDbLine
  8
PHOENIX CONNECTORS
 62
256
370
-1
 48
1.0
  6
ByLayer
 10
-0.4440316982103507
 20
-0.4098063217325854
 30
0.0
 11
-0.4440316982103507
 21
-0.4541015254911589
 31
0.0
  0
LINE
  5
166
100
AcDbEntity
100
AcDbLine
  8
PHOENIX CONNECTORS
 62
256
370
-1
 48
1.0
  6
ByLayer
 10
-0.3420807292767307
 20
-0.4098063217325862
 30
0.0
 11
-0.4440316982103507
 21
-0.4098063217325854
 31
0.0
  0
LINE
  5
167
100
AcDbEntity
100
AcDbLine
  8
PHOENIX CONNECTORS
 62
256
370
-1
 48
1.0
  6
ByLayer
 10
-0.4440316982103507
 20
-0.4541015254911589
 30
0.0
 11
-0.3420807292767325
 21
-0.4541015254911667
 31
0.0
  0
LINE
  5
168
100
AcDbEntity
100
AcDbLine
  8
PHOENIX CONNECTORS
 62
256
370
-1
 48
1.0
  6
ByLayer
 10
-0.3420807292767325
 20
-0.4541015254911667
 30
0.0
 11
-0.3420807292767307
 21
-0.4098063217325862
 31
0.0
  0
CIRCLE
  5
169
100
AcDbEntity
100
AcDbCircle
  8
PHOENIX CONNECTORS
 62
256
370
-1
 48
1.0
  6
ByLayer
 10
-0.0113913655998825
 20
-0.740448492389149
 30
0.0
 40
0.08
  0
LINE
  5
16A
100
AcDbEntity
100
AcDbLine
  8
PHOENIX CONNECTORS
 62
256
370
-1
 48
1.0
  6
ByLayer
 10
-0.0215103530552323
 20
-0.8204484923891546
 30
0.0
 11
-0.0215103530552323
 21
-0.6604484923891529
 31
0.0
  0
LINE
  5
16B
100
AcDbEntity
100
AcDbLine
  8
PHOENIX CONNECTORS
 62
256
370
-1
 48
1.0
  6
ByLayer
 10
-0.0015103530552327
 20
-0.8204484923891531
 30
0.0
 11
-0.0015103530552327
 21
-0.6604484923891536
 31
0.0
  0
LINE
  5
16C
100
AcDbEntity
100
AcDbLine
  8
PHOENIX CONNECTORS
 62
256
370
-1
 48
1.0
  6
ByLayer
 10
-0.1467682292767307
 20
-0.4541015254911618
 30
0.0
 11
-0.1467682292767307
 21
-0.4098063217325889
 31
0.0
  0
LINE
  5
16D
100
AcDbEntity
100
AcDbLine
  8
PHOENIX CONNECTORS
 62
256
370
-1
 48
1.0
  6
ByLayer
 10
-0.2487191982103507
 20
-0.4098063217325851
 30
0.0
 11
-0.2487191982103525
 21
-0.4541015254911602
 31
0.0
  0
LINE
  5
16E
100
AcDbEntity
100
AcDbLine
  8
PHOENIX CONNECTORS
 62
256
370
-1
 48
1.0
  6
ByLayer
 10
-0.1467682292767307
 20
-0.4098063217325889
 30
0.0
 11
-0.2487191982103507
 21
-0.4098063217325851
 31
0.0
  0
LINE
  5
16F
100
AcDbEntity
100
AcDbLine
  8
PHOENIX CONNECTORS
 62
256
370
-1
 48
1.0
  6
ByLayer
 10
-0.2487191982103525
 20
-0.4541015254911602
 30
0.0
 11
-0.1467682292767307
 21
-0.4541015254911618
 31
0.0
  0
LINE
  5
170
100
AcDbEntity
100
AcDbLine
  8
PHOENIX CONNECTORS
 62
256
370
-1
 48
1.0
  6
ByLayer
 10
-0.0485442707232711
 20
-0.4541015254911625
 30
0.0
 11
-0.0485442707232693
 21
-0.4098063217325885
 31
0.0
  0
LINE
  5
171
100
AcDbEntity
100
AcDbLine
  8
PHOENIX CONNECTORS
 62
256
370
-1
 48
1.0
  6
ByLayer
 10
0.0534066982103525
 20
-0.409806321732588
 30
0.0
 11
0.0534066982103525
 21
-0.4541015254911613
 31
0.0
  0
LINE
  5
172
100
AcDbEntity
100
AcDbLine
  8
PHOENIX CONNECTORS
 62
256
370
-1
 48
1.0
  6
ByLayer
 10
-0.0485442707232693
 20
-0.4098063217325885
 30
0.0
 11
0.0534066982103525
 21
-0.409806321732588
 31
0.0
  0
LINE
  5
173
100
AcDbEntity
100
AcDbLine
  8
PHOENIX CONNECTORS
 62
256
370
-1
 48
1.0
  6
ByLayer
 10
0.0534066982103525
 20
-0.4541015254911613
 30
0.0
 11
-0.0485442707232711
 21
-0.4541015254911625
 31
0.0
  0
CIRCLE
  5
174
100
AcDbEntity
100
AcDbCircle
  8
PHOENIX CONNECTORS
 62
256
370
-1
 48
1.0
  6
ByLayer
 10
-0.2067038655998825
 20
-0.7404484923891475
 30
0.0
 40
0.08
  0
LINE
  5
175
100
AcDbEntity
100
AcDbLine
  8
PHOENIX CONNECTORS
 62
256
370
-1
 48
1.0
  6
ByLayer
 10
-0.2168228530552323
 20
-0.8204484923891484
 30
0.0
 11
-0.2168228530552323
 21
-0.6604484923891514
 31
0.0
  0
LINE
  5
176
100
AcDbEntity
100
AcDbLine
  8
PHOENIX CONNECTORS
 62
256
370
-1
 48
1.0
  6
ByLayer
 10
-0.1968228530552327
 20
-0.8204484923891482
 30
0.0
 11
-0.1968228530552327
 21
-0.6604484923891465
 31
0.0
  0
ENDBLK
  5
177
100
AcDbEntity
  8
0
100
AcDbBlockEnd
  0
BLOCK
  5
178
100
AcDbEntity
  8
0
100
AcDbBlockBegin
  2
SWITCH RESET
 70
0
 10
0.0
 20
0.0
 30
0.0
  3
SWITCH RESET
  1

  0
ARC
  5
179
100
AcDbEntity
  8
HARDWARE
 62
256
370
-1
 48
1.0
  6
ByLayer
100
AcDbCircle
 10
0.115067617535912
 20
0.0700000000000003
 30
0.0
 40
0.0081445215523051
100
AcDbArc
 50
270.0
 51
90.0
  0
ARC
  5
17A
100
AcDbEntity
  8
HARDWARE
 62
256
370
-1
 48
1.0
  6
ByLayer
100
AcDbCircle
 10
-0.1150676175359138
 20
0.0700000000000003
 30
0.0
 40
0.0081445215523051
100
AcDbArc
 50
90.0
 51
270.0
  0
LWPOLYLINE
  5
17B
  8
HARDWARE
 62
256
370
-1
 48
1.0
  6
ByLayer
100
AcDbEntity
100
AcDbPolyline
 90
8
 70
1
 10
-0.1150676175359138
 20
0.1321875000000077
 30
0.0
 10
-0.115067617535912
 20
0.0078125000000036
 30
0.0
 42
0.4142135623730846
 10
-0.107255117535912
 20
0.0000000000000036
 30
0.0
 10
0.1072551175359102
 20
-0.0000000000000036
 30
0.0
 42
0.4142135623731003
 10
0.1150676175359102
 20
0.0078124999999964
 30
0.0
 10
0.115067617535912
 20
0.1321875000000006
 30
0.0
 42
0.414213562373089
 10
0.107255117535912
 20
0.1400000000000006
 30
0.0
 10
-0.1072551175359138
 20
0.1400000000000079
 30
0.0
 42
0.4142135623731036
  0
LINE
  5
17C
100
AcDbEntity
100
AcDbLine
  8
HARDWARE
 62
256
370
-1
 48
1.0
  6
ByLayer
 10
0.0747665737703667
 20
0.0499726339713205
 30
0.0
 11
0.0747665737703667
 21
0.0900273660286779
 31
0.0
  0
LINE
  5
17D
100
AcDbEntity
100
AcDbLine
  8
HARDWARE
 62
256
370
-1
 48
1.0
  6
ByLayer
 10
-0.0813924638388759
 20
0.0499726339713209
 30
0.0
 11
0.0747665737703667
 21
0.0499726339713205
 31
0.0
  0
LINE
  5
17E
100
AcDbEntity
100
AcDbLine
  8
HARDWARE
 62
256
370
-1
 48
1.0
  6
ByLayer
 10
-0.0813924638388759
 20
0.0900273660286779
 30
0.0
 11
-0.0813924638388759
 21
0.0499726339713209
 31
0.0
  0
LINE
  5
17F
100
AcDbEntity
100
AcDbLine
  8
HARDWARE
 62
256
370
-1
 48
1.0
  6
ByLayer
 10
0.0747665737703667
 20
0.0900273660286779
 30
0.0
 11
-0.0813924638388759
 21
0.0900273660286779
 31
0.0
  0
ENDBLK
  5
180
100
AcDbEntity
  8
0
100
AcDbBlockEnd
  0
BLOCK
  5
181
100
AcDbEntity
  8
0
100
AcDbBlockBegin
  2
CONN SCREW 9 PIN
 70
0
 10
0.0
 20
0.0
 30
0.0
  3
CONN SCREW 9 PIN
  1

  0
LINE
  5
182
100
AcDbEntity
100
AcDbLine
  8
PHOENIX CONNECTORS
 62
256
370
-1
 48
1.0
  6
ByLayer
 10
0.8835927947820963
 20
-0.0000000000000027
 30
0.0
 11
0.8835927947820963
 21
-0.2047136004724712
 31
0.0
  0
LINE
  5
183
100
AcDbEntity
100
AcDbLine
  8
PHOENIX CONNECTORS
 62
256
370
-1
 48
1.0
  6
ByLayer
 10
0.8835927947820927
 20
-0.4541015254911534
 30
0.0
 11
0.8835927947820927
 21
-0.9062500000000027
 31
0.0
  0
LINE
  5
184
100
AcDbEntity
100
AcDbLine
  8
PHOENIX CONNECTORS
 62
256
370
-1
 48
1.0
  6
ByLayer
 10
0.6585937499999979
 20
-0.4184979577658043
 30
0.0
 11
0.7085937499999986
 21
-0.4184979577658043
 31
0.0
  0
LINE
  5
185
100
AcDbEntity
100
AcDbLine
  8
PHOENIX CONNECTORS
 62
256
370
-1
 48
1.0
  6
ByLayer
 10
0.9037519352227506
 20
-0.4642444320594126
 30
0.0
 11
0.9037519352227506
 21
-0.1945706939042142
 31
0.0
  0
LINE
  5
186
100
AcDbEntity
100
AcDbLine
  8
PHOENIX CONNECTORS
 62
256
370
-1
 48
1.0
  6
ByLayer
 10
0.9037519352227506
 20
-0.1945706939042142
 30
0.0
 11
0.8835927947820963
 21
-0.2047136004724721
 31
0.0
  0
LINE
  5
187
100
AcDbEntity
100
AcDbLine
  8
PHOENIX CONNECTORS
 62
256
370
-1
 48
1.0
  6
ByLayer
 10
0.9037519352227506
 20
-0.4642444320594126
 30
0.0
 11
0.8835927947820963
 21
-0.4541015254911542
 31
0.0
  0
LINE
  5
188
100
AcDbEntity
100
AcDbLine
  8
PHOENIX CONNECTORS
 62
256
370
-1
 48
1.0
  6
ByLayer
 10
0.8835927947820927
 20
-0.2404932734604937
 30
0.0
 11
0.8835927947820963
 21
-0.3312174887779822
 31
0.0
  0
LINE
  5
189
100
AcDbEntity
100
AcDbLine
  8
PHOENIX CONNECTORS
 62
256
370
-1
 48
1.0
  6
ByLayer
 10
0.6585937499999979
 20
-0.3312174887779826
 30
0.0
 11
0.6585937500000014
 21
-0.6074222480695215
 31
0.0
  0
LINE
  5
18A
100
AcDbEntity
100
AcDbLine
  8
PHOENIX CONNECTORS
 62
256
370
-1
 48
1.0
  6
ByLayer
 10
0.7085937499999986
 20
-0.3312174887779826
 30
0.0
 11
0.7085937499999986
 21
-0.6074222480695242
 31
0.0
  0
CIRCLE
  5
18B
100
AcDbEntity
100
AcDbCircle
  8
PHOENIX CONNECTORS
 62
256
370
-1
 48
1.0
  6
ByLayer
 10
-0.0113913655998843
 20
-0.7404484923891395
 30
0.0
 40
0.08
  0
CIRCLE
  5
18C
100
AcDbEntity
100
AcDbCircle
  8
PHOENIX CONNECTORS
 62
256
370
-1
 48
1.0
  6
ByLayer
 10
0.5745461344001157
 20
-0.7404484923891439
 30
0.0
 40
0.08
  0
LINE
  5
18D
100
AcDbEntity
100
AcDbLine
  8
PHOENIX CONNECTORS
 62
256
370
-1
 48
1.0
  6
ByLayer
 10
-0.0215103530552341
 20
-0.8204484923891369
 30
0.0
 11
-0.0215103530552341
 21
-0.6604484923891403
 31
0.0
  0
LINE
  5
18E
100
AcDbEntity
100
AcDbLine
  8
PHOENIX CONNECTORS
 62
256
370
-1
 48
1.0
  6
ByLayer
 10
0.5644271469447659
 20
-0.8204484923891413
 30
0.0
 11
0.5644271469447659
 21
-0.6604484923891447
 31
0.0
  0
LINE
  5
18F
100
AcDbEntity
100
AcDbLine
  8
PHOENIX CONNECTORS
 62
256
370
-1
 48
1.0
  6
ByLayer
 10
-0.001510353055231
 20
-0.8204484923891382
 30
0.0
 11
-0.001510353055231
 21
-0.6604484923891385
 31
0.0
  0
LINE
  5
190
100
AcDbEntity
100
AcDbLine
  8
PHOENIX CONNECTORS
 62
256
370
-1
 48
1.0
  6
ByLayer
 10
0.5844271469447691
 20
-0.8204484923891426
 30
0.0
 11
0.5844271469447691
 21
-0.6604484923891429
 31
0.0
  0
CIRCLE
  5
191
100
AcDbEntity
100
AcDbCircle
  8
PHOENIX CONNECTORS
 62
256
370
-1
 48
1.0
  6
ByLayer
 10
0.1839211344001157
 20
-0.7404484923891386
 30
0.0
 40
0.08
  0
CIRCLE
  5
192
100
AcDbEntity
100
AcDbCircle
  8
PHOENIX CONNECTORS
 62
256
370
-1
 48
1.0
  6
ByLayer
 10
0.7698586344001157
 20
-0.740448492389143
 30
0.0
 40
0.08
  0
LINE
  5
193
100
AcDbEntity
100
AcDbLine
  8
PHOENIX CONNECTORS
 62
256
370
-1
 48
1.0
  6
ByLayer
 10
0.1738021469447659
 20
-0.8204484923891413
 30
0.0
 11
0.1738021469447659
 21
-0.6604484923891381
 31
0.0
  0
LINE
  5
194
100
AcDbEntity
100
AcDbLine
  8
PHOENIX CONNECTORS
 62
256
370
-1
 48
1.0
  6
ByLayer
 10
0.7597396469447659
 20
-0.8204484923891457
 30
0.0
 11
0.7597396469447659
 21
-0.6604484923891425
 31
0.0
  0
LINE
  5
195
100
AcDbEntity
100
AcDbLine
  8
PHOENIX CONNECTORS
 62
256
370
-1
 48
1.0
  6
ByLayer
 10
0.1938021469447691
 20
-0.8204484923891395
 30
0.0
 11
0.1938021469447691
 21
-0.6604484923891385
 31
0.0
  0
LINE
  5
196
100
AcDbEntity
100
AcDbLine
  8
PHOENIX CONNECTORS
 62
256
370
-1
 48
1.0
  6
ByLayer
 10
0.7797396469447691
 20
-0.820448492389144
 30
0.0
 11
0.7797396469447691
 21
-0.6604484923891429
 31
0.0
  0
LINE
  5
197
100
AcDbEntity
100
AcDbLine
  8
PHOENIX CONNECTORS
 62
256
370
-1
 48
1.0
  6
ByLayer
 10
0.1226562499999986
 20
-0.4541015254911476
 30
0.0
 11
0.2976552947820927
 21
-0.4541015254911489
 31
0.0
  0
LINE
  5
198
100
AcDbEntity
100
AcDbLine
  8
PHOENIX CONNECTORS
 62
256
370
-1
 48
1.0
  6
ByLayer
 10
0.7085937499999986
 20
-0.454101525491152
 30
0.0
 11
0.8835927947820927
 21
-0.4541015254911534
 31
0.0
  0
LINE
  5
199
100
AcDbEntity
100
AcDbLine
  8
PHOENIX CONNECTORS
 62
256
370
-1
 48
1.0
  6
ByLayer
 10
-0.0534066982103525
 20
-0.4541015254911467
 30
0.0
 11
0.0485442707232693
 21
-0.4541015254911489
 31
0.0
  0
LINE
  5
19A
100
AcDbEntity
100
AcDbLine
  8
PHOENIX CONNECTORS
 62
256
370
-1
 48
1.0
  6
ByLayer
 10
0.0485442707232693
 20
-0.409806321732578
 30
0.0
 11
-0.0534066982103525
 21
-0.4098063217325785
 31
0.0
  0
LINE
  5
19B
100
AcDbEntity
100
AcDbLine
  8
PHOENIX CONNECTORS
 62
256
370
-1
 48
1.0
  6
ByLayer
 10
-0.0534066982103525
 20
-0.4098063217325785
 30
0.0
 11
-0.0534066982103525
 21
-0.4541015254911467
 31
0.0
  0
LINE
  5
19C
100
AcDbEntity
100
AcDbLine
  8
PHOENIX CONNECTORS
 62
256
370
-1
 48
1.0
  6
ByLayer
 10
0.0485442707232693
 20
-0.4541015254911489
 30
0.0
 11
0.0485442707232693
 21
-0.409806321732578
 31
0.0
  0
LINE
  5
19D
100
AcDbEntity
100
AcDbLine
  8
PHOENIX CONNECTORS
 62
256
370
-1
 48
1.0
  6
ByLayer
 10
0.6344817707232693
 20
-0.4541015254911534
 30
0.0
 11
0.6344817707232693
 21
-0.4098063217325825
 31
0.0
  0
LINE
  5
19E
100
AcDbEntity
100
AcDbLine
  8
PHOENIX CONNECTORS
 62
256
370
-1
 48
1.0
  6
ByLayer
 10
0.5325308017896475
 20
-0.4541015254911511
 30
0.0
 11
0.6344817707232693
 21
-0.4541015254911534
 31
0.0
  0
LINE
  5
19F
100
AcDbEntity
100
AcDbLine
  8
PHOENIX CONNECTORS
 62
256
370
-1
 48
1.0
  6
ByLayer
 10
0.5325308017896475
 20
-0.4098063217325829
 30
0.0
 11
0.5325308017896475
 21
-0.4541015254911511
 31
0.0
  0
LINE
  5
1A0
100
AcDbEntity
100
AcDbLine
  8
PHOENIX CONNECTORS
 62
256
370
-1
 48
1.0
  6
ByLayer
 10
0.6344817707232693
 20
-0.4098063217325825
 30
0.0
 11
0.5325308017896475
 21
-0.4098063217325829
 31
0.0
  0
LINE
  5
1A1
100
AcDbEntity
100
AcDbLine
  8
PHOENIX CONNECTORS
 62
256
370
-1
 48
1.0
  6
ByLayer
 10
0.2487191982103525
 20
-0.454101525491148
 30
0.0
 11
0.1467682292767307
 21
-0.4541015254911471
 31
0.0
  0
LINE
  5
1A2
100
AcDbEntity
100
AcDbLine
  8
PHOENIX CONNECTORS
 62
256
370
-1
 48
1.0
  6
ByLayer
 10
0.7327057292767307
 20
-0.409806321732582
 30
0.0
 11
0.8346566982103525
 21
-0.4098063217325816
 31
0.0
  0
LINE
  5
1A3
100
AcDbEntity
100
AcDbLine
  8
PHOENIX CONNECTORS
 62
256
370
-1
 48
1.0
  6
ByLayer
 10
0.8346566982103525
 20
-0.4541015254911525
 30
0.0
 11
0.7327057292767307
 21
-0.4541015254911516
 31
0.0
  0
LINE
  5
1A4
100
AcDbEntity
100
AcDbLine
  8
PHOENIX CONNECTORS
 62
256
370
-1
 48
1.0
  6
ByLayer
 10
0.7327057292767307
 20
-0.4541015254911516
 30
0.0
 11
0.7327057292767307
 21
-0.409806321732582
 31
0.0
  0
LINE
  5
1A5
100
AcDbEntity
100
AcDbLine
  8
PHOENIX CONNECTORS
 62
256
370
-1
 48
1.0
  6
ByLayer
 10
0.8346566982103525
 20
-0.4098063217325816
 30
0.0
 11
0.8346566982103525
 21
-0.4541015254911525
 31
0.0
  0
LINE
  5
1A6
100
AcDbEntity
100
AcDbLine
  8
PHOENIX CONNECTORS
 62
256
370
-1
 48
1.0
  6
ByLayer
 10
-0.8835927947820963
 20
-0.9062500000000004
 30
0.0
 11
0.2976552947820927
 21
-0.9062499999999982
 31
0.0
  0
LINE
  5
1A7
100
AcDbEntity
100
AcDbLine
  8
PHOENIX CONNECTORS
 62
256
370
-1
 48
1.0
  6
ByLayer
 10
-0.2976552947820963
 20
-0.9062500000000049
 30
0.0
 11
0.8835927947820927
 21
-0.9062500000000027
 31
0.0
  0
LINE
  5
1A8
100
AcDbEntity
100
AcDbLine
  8
PHOENIX CONNECTORS
 62
256
370
-1
 48
1.0
  6
ByLayer
 10
-0.8835927947820963
 20
-0.8750000000000147
 30
0.0
 11
0.2976552947820927
 21
-0.8749999999999871
 31
0.0
  0
LINE
  5
1A9
100
AcDbEntity
100
AcDbLine
  8
PHOENIX CONNECTORS
 62
256
370
-1
 48
1.0
  6
ByLayer
 10
-0.2976552947820963
 20
-0.8750000000000191
 30
0.0
 11
0.8835927947820927
 21
-0.8749999999999916
 31
0.0
  0
LINE
  5
1AA
100
AcDbEntity
100
AcDbLine
  8
PHOENIX CONNECTORS
 62
256
370
-1
 48
1.0
  6
ByLayer
 10
-0.8835927947820963
 20
-0.6074222480695188
 30
0.0
 11
0.2976552947820927
 21
-0.6074222480695197
 31
0.0
  0
LINE
  5
1AB
100
AcDbEntity
100
AcDbLine
  8
PHOENIX CONNECTORS
 62
256
370
-1
 48
1.0
  6
ByLayer
 10
-0.2976552947820963
 20
-0.6074222480695233
 30
0.0
 11
0.8835927947820927
 21
-0.6074222480695242
 31
0.0
  0
LINE
  5
1AC
100
AcDbEntity
100
AcDbLine
  8
PHOENIX CONNECTORS
 62
256
370
-1
 48
1.0
  6
ByLayer
 10
-0.8835927947820963
 20
0.0000000000000027
 30
0.0
 11
-0.8835927947820963
 21
-0.2047136004724699
 31
0.0
  0
LINE
  5
1AD
100
AcDbEntity
100
AcDbLine
  8
PHOENIX CONNECTORS
 62
256
370
-1
 48
1.0
  6
ByLayer
 10
-0.8835927947820963
 20
-0.4541015254911476
 30
0.0
 11
-0.8835927947820963
 21
-0.9062500000000004
 31
0.0
  0
LINE
  5
1AE
100
AcDbEntity
100
AcDbLine
  8
PHOENIX CONNECTORS
 62
256
370
-1
 48
1.0
  6
ByLayer
 10
-0.7085937500000021
 20
-0.4184979577658012
 30
0.0
 11
-0.6585937500000014
 21
-0.4184979577658008
 31
0.0
  0
LINE
  5
1AF
100
AcDbEntity
100
AcDbLine
  8
PHOENIX CONNECTORS
 62
256
370
-1
 48
1.0
  6
ByLayer
 10
-0.9037519352227506
 20
-0.4642444320594068
 30
0.0
 11
-0.9037519352227506
 21
-0.1945706939042089
 31
0.0
  0
LINE
  5
1B0
100
AcDbEntity
100
AcDbLine
  8
PHOENIX CONNECTORS
 62
256
370
-1
 48
1.0
  6
ByLayer
 10
-0.9037519352227506
 20
-0.1945706939042089
 30
0.0
 11
-0.8835927947820963
 21
-0.2047136004724699
 31
0.0
  0
LINE
  5
1B1
100
AcDbEntity
100
AcDbLine
  8
PHOENIX CONNECTORS
 62
256
370
-1
 48
1.0
  6
ByLayer
 10
-0.9037519352227506
 20
-0.4642444320594068
 30
0.0
 11
-0.8835927947820963
 21
-0.4541015254911476
 31
0.0
  0
LINE
  5
1B2
100
AcDbEntity
100
AcDbLine
  8
PHOENIX CONNECTORS
 62
256
370
-1
 48
1.0
  6
ByLayer
 10
-0.8835927947820963
 20
-0.2404932734604892
 30
0.0
 11
0.2976552947820927
 21
-0.2404932734604892
 31
0.0
  0
LINE
  5
1B3
100
AcDbEntity
100
AcDbLine
  8
PHOENIX CONNECTORS
 62
256
370
-1
 48
1.0
  6
ByLayer
 10
-0.2976552947820963
 20
-0.2404932734604937
 30
0.0
 11
0.8835927947820927
 21
-0.2404932734604937
 31
0.0
  0
LINE
  5
1B4
100
AcDbEntity
100
AcDbLine
  8
PHOENIX CONNECTORS
 62
256
370
-1
 48
1.0
  6
ByLayer
 10
-0.8835927947820963
 20
-0.3312174887779804
 30
0.0
 11
0.2976552947820963
 21
-0.3312174887779777
 31
0.0
  0
LINE
  5
1B5
100
AcDbEntity
100
AcDbLine
  8
PHOENIX CONNECTORS
 62
256
370
-1
 48
1.0
  6
ByLayer
 10
-0.2976552947820963
 20
-0.3312174887779849
 30
0.0
 11
0.8835927947820963
 21
-0.3312174887779822
 31
0.0
  0
LINE
  5
1B6
100
AcDbEntity
100
AcDbLine
  8
PHOENIX CONNECTORS
 62
256
370
-1
 48
1.0
  6
ByLayer
 10
-0.8835927947820963
 20
-0.2404932734604892
 30
0.0
 11
-0.8835927947820963
 21
-0.3312174887779804
 31
0.0
  0
LINE
  5
1B7
100
AcDbEntity
100
AcDbLine
  8
PHOENIX CONNECTORS
 62
256
370
-1
 48
1.0
  6
ByLayer
 10
-0.7085937499999986
 20
-0.3312174887779782
 30
0.0
 11
-0.7085937499999986
 21
-0.6074222480695148
 31
0.0
  0
LINE
  5
1B8
100
AcDbEntity
100
AcDbLine
  8
PHOENIX CONNECTORS
 62
256
370
-1
 48
1.0
  6
ByLayer
 10
-0.6585937500000014
 20
-0.3312174887779791
 30
0.0
 11
-0.6585937500000014
 21
-0.6074222480695215
 31
0.0
  0
CIRCLE
  5
1B9
100
AcDbEntity
100
AcDbCircle
  8
PHOENIX CONNECTORS
 62
256
370
-1
 48
1.0
  6
ByLayer
 10
-0.7926413655998843
 20
-0.7404484923891412
 30
0.0
 40
0.08
  0
LINE
  5
1BA
100
AcDbEntity
100
AcDbLine
  8
PHOENIX CONNECTORS
 62
256
370
-1
 48
1.0
  6
ByLayer
 10
-0.8027603530552341
 20
-0.8204484923891329
 30
0.0
 11
-0.8027603530552341
 21
-0.6604484923891398
 31
0.0
  0
LINE
  5
1BB
100
AcDbEntity
100
AcDbLine
  8
PHOENIX CONNECTORS
 62
256
370
-1
 48
1.0
  6
ByLayer
 10
-0.7827603530552345
 20
-0.8204484923891569
 30
0.0
 11
-0.782760353055231
 21
-0.6604484923891372
 31
0.0
  0
CIRCLE
  5
1BC
100
AcDbEntity
100
AcDbCircle
  8
PHOENIX CONNECTORS
 62
256
370
-1
 48
1.0
  6
ByLayer
 10
-0.5973288655998843
 20
-0.740448492389135
 30
0.0
 40
0.08
  0
LINE
  5
1BD
100
AcDbEntity
100
AcDbLine
  8
PHOENIX CONNECTORS
 62
256
370
-1
 48
1.0
  6
ByLayer
 10
-0.6074478530552341
 20
-0.8204484923891289
 30
0.0
 11
-0.6074478530552341
 21
-0.6604484923891332
 31
0.0
  0
LINE
  5
1BE
100
AcDbEntity
100
AcDbLine
  8
PHOENIX CONNECTORS
 62
256
370
-1
 48
1.0
  6
ByLayer
 10
-0.5874478530552345
 20
-0.820448492389144
 30
0.0
 11
-0.587447853055231
 21
-0.6604484923891354
 31
0.0
  0
LINE
  5
1BF
100
AcDbEntity
100
AcDbLine
  8
PHOENIX CONNECTORS
 62
256
370
-1
 48
1.0
  6
ByLayer
 10
-0.8835927947820963
 20
-0.4541015254911476
 30
0.0
 11
-0.7085937499999986
 21
-0.4541015254911485
 31
0.0
  0
LINE
  5
1C0
100
AcDbEntity
100
AcDbLine
  8
PHOENIX CONNECTORS
 62
256
370
-1
 48
1.0
  6
ByLayer
 10
-0.6585937500000014
 20
-0.4541015254911467
 30
0.0
 11
0.0726562500000014
 21
-0.4541015254911485
 31
0.0
  0
LINE
  5
1C1
100
AcDbEntity
100
AcDbLine
  8
PHOENIX CONNECTORS
 62
256
370
-1
 48
1.0
  6
ByLayer
 10
-0.0726562500000014
 20
-0.4541015254911511
 30
0.0
 11
0.6585937500000014
 21
-0.4541015254911529
 31
0.0
  0
LINE
  5
1C2
100
AcDbEntity
100
AcDbLine
  8
PHOENIX CONNECTORS
 62
256
370
-1
 48
1.0
  6
ByLayer
 10
-0.8346566982103525
 20
-0.4098063217325771
 30
0.0
 11
-0.8346566982103525
 21
-0.4541015254911476
 31
0.0
  0
LINE
  5
1C3
100
AcDbEntity
100
AcDbLine
  8
PHOENIX CONNECTORS
 62
256
370
-1
 48
1.0
  6
ByLayer
 10
-0.7327057292767307
 20
-0.4098063217325767
 30
0.0
 11
-0.8346566982103525
 21
-0.4098063217325771
 31
0.0
  0
LINE
  5
1C4
100
AcDbEntity
100
AcDbLine
  8
PHOENIX CONNECTORS
 62
256
370
-1
 48
1.0
  6
ByLayer
 10
-0.8346566982103525
 20
-0.4541015254911476
 30
0.0
 11
-0.7327057292767307
 21
-0.4541015254911467
 31
0.0
  0
LINE
  5
1C5
100
AcDbEntity
100
AcDbLine
  8
PHOENIX CONNECTORS
 62
256
370
-1
 48
1.0
  6
ByLayer
 10
-0.7327057292767307
 20
-0.4541015254911467
 30
0.0
 11
-0.7327057292767307
 21
-0.4098063217325767
 31
0.0
  0
LINE
  5
1C6
100
AcDbEntity
100
AcDbLine
  8
PHOENIX CONNECTORS
 62
256
370
-1
 48
1.0
  6
ByLayer
 10
-0.5325308017896475
 20
-0.4541015254911476
 30
0.0
 11
-0.6344817707232693
 21
-0.4541015254911476
 31
0.0
  0
LINE
  5
1C7
100
AcDbEntity
100
AcDbLine
  8
PHOENIX CONNECTORS
 62
256
370
-1
 48
1.0
  6
ByLayer
 10
-0.5325308017896475
 20
-0.4098063217325771
 30
0.0
 11
-0.5325308017896475
 21
-0.4541015254911476
 31
0.0
  0
LINE
  5
1C8
100
AcDbEntity
100
AcDbLine
  8
PHOENIX CONNECTORS
 62
256
370
-1
 48
1.0
  6
ByLayer
 10
-0.6344817707232693
 20
-0.4541015254911476
 30
0.0
 11
-0.6344817707232693
 21
-0.4098063217325776
 31
0.0
  0
LINE
  5
1C9
100
AcDbEntity
100
AcDbLine
  8
PHOENIX CONNECTORS
 62
256
370
-1
 48
1.0
  6
ByLayer
 10
-0.6344817707232693
 20
-0.4098063217325776
 30
0.0
 11
-0.5325308017896475
 21
-0.4098063217325771
 31
0.0
  0
CIRCLE
  5
1CA
100
AcDbEntity
100
AcDbCircle
  8
PHOENIX CONNECTORS
 62
256
370
-1
 48
1.0
  6
ByLayer
 10
-0.4020163655998843
 20
-0.7404484923891412
 30
0.0
 40
0.08
  0
CIRCLE
  5
1CB
100
AcDbEntity
100
AcDbCircle
  8
PHOENIX CONNECTORS
 62
256
370
-1
 48
1.0
  6
ByLayer
 10
0.1839211344001157
 20
-0.7404484923891457
 30
0.0
 40
0.08
  0
LINE
  5
1CC
100
AcDbEntity
100
AcDbLine
  8
PHOENIX CONNECTORS
 62
256
370
-1
 48
1.0
  6
ByLayer
 10
-0.4121353530552341
 20
-0.8204484923891386
 30
0.0
 11
-0.4121353530552341
 21
-0.6604484923891389
 31
0.0
  0
LINE
  5
1CD
100
AcDbEntity
100
AcDbLine
  8
PHOENIX CONNECTORS
 62
256
370
-1
 48
1.0
  6
ByLayer
 10
0.1738021469447659
 20
-0.8204484923891431
 30
0.0
 11
0.1738021469447659
 21
-0.6604484923891434
 31
0.0
  0
LINE
  5
1CE
100
AcDbEntity
100
AcDbLine
  8
PHOENIX CONNECTORS
 62
256
370
-1
 48
1.0
  6
ByLayer
 10
-0.3921353530552345
 20
-0.8204484923891395
 30
0.0
 11
-0.3921353530552345
 21
-0.6604484923891376
 31
0.0
  0
LINE
  5
1CF
100
AcDbEntity
100
AcDbLine
  8
PHOENIX CONNECTORS
 62
256
370
-1
 48
1.0
  6
ByLayer
 10
0.1938021469447655
 20
-0.820448492389144
 30
0.0
 11
0.1938021469447655
 21
-0.6604484923891421
 31
0.0
  0
CIRCLE
  5
1D0
100
AcDbEntity
100
AcDbCircle
  8
PHOENIX CONNECTORS
 62
256
370
-1
 48
1.0
  6
ByLayer
 10
-0.2067038655998843
 20
-0.7404484923891377
 30
0.0
 40
0.08
  0
CIRCLE
  5
1D1
100
AcDbEntity
100
AcDbCircle
  8
PHOENIX CONNECTORS
 62
256
370
-1
 48
1.0
  6
ByLayer
 10
0.3792336344001157
 20
-0.7404484923891421
 30
0.0
 40
0.08
  0
LINE
  5
1D2
100
AcDbEntity
100
AcDbLine
  8
PHOENIX CONNECTORS
 62
256
370
-1
 48
1.0
  6
ByLayer
 10
-0.2168228530552341
 20
-0.8204484923891413
 30
0.0
 11
-0.2168228530552341
 21
-0.6604484923891394
 31
0.0
  0
LINE
  5
1D3
100
AcDbEntity
100
AcDbLine
  8
PHOENIX CONNECTORS
 62
256
370
-1
 48
1.0
  6
ByLayer
 10
0.3691146469447659
 20
-0.8204484923891457
 30
0.0
 11
0.3691146469447659
 21
-0.6604484923891438
 31
0.0
  0
LINE
  5
1D4
100
AcDbEntity
100
AcDbLine
  8
PHOENIX CONNECTORS
 62
256
370
-1
 48
1.0
  6
ByLayer
 10
-0.1968228530552345
 20
-0.8204484923891395
 30
0.0
 11
-0.1968228530552345
 21
-0.6604484923891385
 31
0.0
  0
LINE
  5
1D5
100
AcDbEntity
100
AcDbLine
  8
PHOENIX CONNECTORS
 62
256
370
-1
 48
1.0
  6
ByLayer
 10
0.3891146469447655
 20
-0.820448492389144
 30
0.0
 11
0.3891146469447655
 21
-0.6604484923891429
 31
0.0
  0
LINE
  5
1D6
100
AcDbEntity
100
AcDbLine
  8
PHOENIX CONNECTORS
 62
256
370
-1
 48
1.0
  6
ByLayer
 10
-0.4440316982103525
 20
-0.4098063217325767
 30
0.0
 11
-0.4440316982103525
 21
-0.4541015254911485
 31
0.0
  0
LINE
  5
1D7
100
AcDbEntity
100
AcDbLine
  8
PHOENIX CONNECTORS
 62
256
370
-1
 48
1.0
  6
ByLayer
 10
-0.3420807292767307
 20
-0.4541015254911502
 30
0.0
 11
-0.3420807292767307
 21
-0.4098063217325771
 31
0.0
  0
LINE
  5
1D8
100
AcDbEntity
100
AcDbLine
  8
PHOENIX CONNECTORS
 62
256
370
-1
 48
1.0
  6
ByLayer
 10
-0.3420807292767307
 20
-0.4098063217325771
 30
0.0
 11
-0.4440316982103525
 21
-0.4098063217325767
 31
0.0
  0
LINE
  5
1D9
100
AcDbEntity
100
AcDbLine
  8
PHOENIX CONNECTORS
 62
256
370
-1
 48
1.0
  6
ByLayer
 10
-0.4440316982103525
 20
-0.4541015254911485
 30
0.0
 11
-0.3420807292767307
 21
-0.4541015254911502
 31
0.0
  0
LINE
  5
1DA
100
AcDbEntity
100
AcDbLine
  8
PHOENIX CONNECTORS
 62
256
370
-1
 48
1.0
  6
ByLayer
 10
0.1419058017896475
 20
-0.4541015254911529
 30
0.0
 11
0.2438567707232693
 21
-0.4541015254911547
 31
0.0
  0
LINE
  5
1DB
100
AcDbEntity
100
AcDbLine
  8
PHOENIX CONNECTORS
 62
256
370
-1
 48
1.0
  6
ByLayer
 10
0.2438567707232693
 20
-0.4098063217325816
 30
0.0
 11
0.1419058017896475
 21
-0.4098063217325811
 31
0.0
  0
LINE
  5
1DC
100
AcDbEntity
100
AcDbLine
  8
PHOENIX CONNECTORS
 62
256
370
-1
 48
1.0
  6
ByLayer
 10
0.2438567707232693
 20
-0.4541015254911547
 30
0.0
 11
0.2438567707232693
 21
-0.4098063217325816
 31
0.0
  0
LINE
  5
1DD
100
AcDbEntity
100
AcDbLine
  8
PHOENIX CONNECTORS
 62
256
370
-1
 48
1.0
  6
ByLayer
 10
0.1419058017896475
 20
-0.4098063217325811
 30
0.0
 11
0.1419058017896475
 21
-0.4541015254911529
 31
0.0
  0
LINE
  5
1DE
100
AcDbEntity
100
AcDbLine
  8
PHOENIX CONNECTORS
 62
256
370
-1
 48
1.0
  6
ByLayer
 10
-0.2438567707232693
 20
-0.4541015254911494
 30
0.0
 11
-0.2438567707232693
 21
-0.4098063217325758
 31
0.0
  0
LINE
  5
1DF
100
AcDbEntity
100
AcDbLine
  8
PHOENIX CONNECTORS
 62
256
370
-1
 48
1.0
  6
ByLayer
 10
-0.2438567707232693
 20
-0.4098063217325758
 30
0.0
 11
-0.1419058017896475
 21
-0.4098063217325789
 31
0.0
  0
LINE
  5
1E0
100
AcDbEntity
100
AcDbLine
  8
PHOENIX CONNECTORS
 62
256
370
-1
 48
1.0
  6
ByLayer
 10
-0.1419058017896475
 20
-0.4098063217325789
 30
0.0
 11
-0.1419058017896475
 21
-0.4541015254911485
 31
0.0
  0
LINE
  5
1E1
100
AcDbEntity
100
AcDbLine
  8
PHOENIX CONNECTORS
 62
256
370
-1
 48
1.0
  6
ByLayer
 10
-0.1419058017896475
 20
-0.4541015254911485
 30
0.0
 11
-0.2438567707232693
 21
-0.4541015254911494
 31
0.0
  0
LINE
  5
1E2
100
AcDbEntity
100
AcDbLine
  8
PHOENIX CONNECTORS
 62
256
370
-1
 48
1.0
  6
ByLayer
 10
0.4440316982103525
 20
-0.4541015254911529
 30
0.0
 11
0.3420807292767307
 21
-0.4541015254911538
 31
0.0
  0
LINE
  5
1E3
100
AcDbEntity
100
AcDbLine
  8
PHOENIX CONNECTORS
 62
256
370
-1
 48
1.0
  6
ByLayer
 10
0.4440316982103525
 20
-0.4098063217325834
 30
0.0
 11
0.4440316982103525
 21
-0.4541015254911529
 31
0.0
  0
LINE
  5
1E4
100
AcDbEntity
100
AcDbLine
  8
PHOENIX CONNECTORS
 62
256
370
-1
 48
1.0
  6
ByLayer
 10
0.3420807292767307
 20
-0.4098063217325803
 30
0.0
 11
0.4440316982103525
 21
-0.4098063217325834
 31
0.0
  0
LINE
  5
1E5
100
AcDbEntity
100
AcDbLine
  8
PHOENIX CONNECTORS
 62
256
370
-1
 48
1.0
  6
ByLayer
 10
0.3420807292767307
 20
-0.4541015254911538
 30
0.0
 11
0.3420807292767307
 21
-0.4098063217325803
 31
0.0
  0
LINE
  5
1E6
100
AcDbEntity
100
AcDbLine
  8
PHOENIX CONNECTORS
 62
256
370
-1
 48
1.0
  6
ByLayer
 10
-0.8835927947820963
 20
0.0000000000000027
 30
0.0
 11
0.8835927947820963
 21
-0.0000000000000027
 31
0.0
  0
ENDBLK
  5
1E7
100
AcDbEntity
  8
0
100
AcDbBlockEnd
  0
BLOCK
  5
1E8
100
AcDbEntity
  8
0
100
AcDbBlockBegin
  2
CONN SCREW 3 PIN
 70
0
 10
0.0
 20
0.0
 30
0.0
  3
CONN SCREW 3 PIN
  1

  0
LINE
  5
1E9
100
AcDbEntity
100
AcDbLine
  8
PHOENIX CONNECTORS
 62
256
370
-1
 48
1.0
  6
ByLayer
 10
0.2976552947820963
 20
0.0000000000000084
 30
0.0
 11
0.2976552947820963
 21
-0.2047136004724601
 31
0.0
  0
LINE
  5
1EA
100
AcDbEntity
100
AcDbLine
  8
PHOENIX CONNECTORS
 62
256
370
-1
 48
1.0
  6
ByLayer
 10
0.2976552947820927
 20
-0.4541015254911422
 30
0.0
 11
0.2976552947820927
 21
-0.9062499999999916
 31
0.0
  0
LINE
  5
1EB
100
AcDbEntity
100
AcDbLine
  8
PHOENIX CONNECTORS
 62
256
370
-1
 48
1.0
  6
ByLayer
 10
0.0726562499999979
 20
-0.4184979577657932
 30
0.0
 11
0.1226562499999986
 21
-0.4184979577657932
 31
0.0
  0
LINE
  5
1EC
100
AcDbEntity
100
AcDbLine
  8
PHOENIX CONNECTORS
 62
256
370
-1
 48
1.0
  6
ByLayer
 10
0.3178144352227506
 20
-0.4642444320594015
 30
0.0
 11
0.3178144352227506
 21
-0.1945706939042031
 31
0.0
  0
LINE
  5
1ED
100
AcDbEntity
100
AcDbLine
  8
PHOENIX CONNECTORS
 62
256
370
-1
 48
1.0
  6
ByLayer
 10
0.3178144352227506
 20
-0.1945706939042076
 30
0.0
 11
0.2976552947820963
 21
-0.2047136004724655
 31
0.0
  0
LINE
  5
1EE
100
AcDbEntity
100
AcDbLine
  8
PHOENIX CONNECTORS
 62
256
370
-1
 48
1.0
  6
ByLayer
 10
0.3178144352227506
 20
-0.4642444320594059
 30
0.0
 11
0.2976552947820963
 21
-0.4541015254911476
 31
0.0
  0
LINE
  5
1EF
100
AcDbEntity
100
AcDbLine
  8
PHOENIX CONNECTORS
 62
256
370
-1
 48
1.0
  6
ByLayer
 10
0.2976552947820927
 20
-0.2404932734604826
 30
0.0
 11
0.2976552947820963
 21
-0.3312174887779711
 31
0.0
  0
LINE
  5
1F0
100
AcDbEntity
100
AcDbLine
  8
PHOENIX CONNECTORS
 62
256
370
-1
 48
1.0
  6
ByLayer
 10
0.0726562499999979
 20
-0.3312174887779715
 30
0.0
 11
0.0726562500000014
 21
-0.6074222480695104
 31
0.0
  0
LINE
  5
1F1
100
AcDbEntity
100
AcDbLine
  8
PHOENIX CONNECTORS
 62
256
370
-1
 48
1.0
  6
ByLayer
 10
0.1226562499999986
 20
-0.3312174887779715
 30
0.0
 11
0.1226562499999986
 21
-0.6074222480695131
 31
0.0
  0
CIRCLE
  5
1F2
100
AcDbEntity
100
AcDbCircle
  8
PHOENIX CONNECTORS
 62
256
370
-1
 48
1.0
  6
ByLayer
 10
0.1839211344001157
 20
-0.7404484923891319
 30
0.0
 40
0.08
  0
LINE
  5
1F3
100
AcDbEntity
100
AcDbLine
  8
PHOENIX CONNECTORS
 62
256
370
-1
 48
1.0
  6
ByLayer
 10
0.1738021469447659
 20
-0.8204484923891346
 30
0.0
 11
0.1738021469447659
 21
-0.6604484923891314
 31
0.0
  0
LINE
  5
1F4
100
AcDbEntity
100
AcDbLine
  8
PHOENIX CONNECTORS
 62
256
370
-1
 48
1.0
  6
ByLayer
 10
0.1938021469447691
 20
-0.8204484923891329
 30
0.0
 11
0.1938021469447691
 21
-0.6604484923891318
 31
0.0
  0
LINE
  5
1F5
100
AcDbEntity
100
AcDbLine
  8
PHOENIX CONNECTORS
 62
256
370
-1
 48
1.0
  6
ByLayer
 10
0.1467682292767307
 20
-0.4098063217325709
 30
0.0
 11
0.2487191982103525
 21
-0.4098063217325705
 31
0.0
  0
LINE
  5
1F6
100
AcDbEntity
100
AcDbLine
  8
PHOENIX CONNECTORS
 62
256
370
-1
 48
1.0
  6
ByLayer
 10
0.1467682292767307
 20
-0.4541015254911405
 30
0.0
 11
0.1467682292767307
 21
-0.4098063217325709
 31
0.0
  0
LINE
  5
1F7
100
AcDbEntity
100
AcDbLine
  8
PHOENIX CONNECTORS
 62
256
370
-1
 48
1.0
  6
ByLayer
 10
0.2487191982103525
 20
-0.4098063217325705
 30
0.0
 11
0.2487191982103525
 21
-0.4541015254911414
 31
0.0
  0
LINE
  5
1F8
100
AcDbEntity
100
AcDbLine
  8
PHOENIX CONNECTORS
 62
256
370
-1
 48
1.0
  6
ByLayer
 10
-0.2976552947820963
 20
0.0000000000000004
 30
0.0
 11
0.2976552947820927
 21
0.0
 31
0.0
  0
LINE
  5
1F9
100
AcDbEntity
100
AcDbLine
  8
PHOENIX CONNECTORS
 62
256
370
-1
 48
1.0
  6
ByLayer
 10
-0.2976552947820963
 20
-0.9062500000000027
 30
0.0
 11
0.2976552947820892
 21
-0.9062500000000013
 31
0.0
  0
LINE
  5
1FA
100
AcDbEntity
100
AcDbLine
  8
PHOENIX CONNECTORS
 62
256
370
-1
 48
1.0
  6
ByLayer
 10
-0.2976552947820963
 20
-0.8750000000000169
 30
0.0
 11
0.2976552947820892
 21
-0.8750000000000031
 31
0.0
  0
LINE
  5
1FB
100
AcDbEntity
100
AcDbLine
  8
PHOENIX CONNECTORS
 62
256
370
-1
 48
1.0
  6
ByLayer
 10
-0.2976552947820963
 20
-0.6074222480695211
 30
0.0
 11
0.2976552947820892
 21
-0.6074222480695215
 31
0.0
  0
LINE
  5
1FC
100
AcDbEntity
100
AcDbLine
  8
PHOENIX CONNECTORS
 62
256
370
-1
 48
1.0
  6
ByLayer
 10
-0.2976552947820963
 20
0.0000000000000004
 30
0.0
 11
-0.2976552947820963
 21
-0.2047136004724721
 31
0.0
  0
LINE
  5
1FD
100
AcDbEntity
100
AcDbLine
  8
PHOENIX CONNECTORS
 62
256
370
-1
 48
1.0
  6
ByLayer
 10
-0.2976552947820963
 20
-0.4541015254911498
 30
0.0
 11
-0.2976552947820963
 21
-0.9062500000000027
 31
0.0
  0
LINE
  5
1FE
100
AcDbEntity
100
AcDbLine
  8
PHOENIX CONNECTORS
 62
256
370
-1
 48
1.0
  6
ByLayer
 10
-0.1226562500000021
 20
-0.4184979577658035
 30
0.0
 11
-0.0726562500000014
 21
-0.418497957765803
 31
0.0
  0
LINE
  5
1FF
100
AcDbEntity
100
AcDbLine
  8
PHOENIX CONNECTORS
 62
256
370
-1
 48
1.0
  6
ByLayer
 10
-0.3178144352227506
 20
-0.464244432059409
 30
0.0
 11
-0.3178144352227506
 21
-0.1945706939042111
 31
0.0
  0
LINE
  5
200
100
AcDbEntity
100
AcDbLine
  8
PHOENIX CONNECTORS
 62
256
370
-1
 48
1.0
  6
ByLayer
 10
-0.3178144352227506
 20
-0.1945706939042111
 30
0.0
 11
-0.2976552947820963
 21
-0.2047136004724721
 31
0.0
  0
LINE
  5
201
100
AcDbEntity
100
AcDbLine
  8
PHOENIX CONNECTORS
 62
256
370
-1
 48
1.0
  6
ByLayer
 10
-0.3178144352227506
 20
-0.464244432059409
 30
0.0
 11
-0.2976552947820963
 21
-0.4541015254911498
 31
0.0
  0
LINE
  5
202
100
AcDbEntity
100
AcDbLine
  8
PHOENIX CONNECTORS
 62
256
370
-1
 48
1.0
  6
ByLayer
 10
-0.2976552947820963
 20
-0.2404932734604914
 30
0.0
 11
0.2976552947820927
 21
-0.2404932734604914
 31
0.0
  0
LINE
  5
203
100
AcDbEntity
100
AcDbLine
  8
PHOENIX CONNECTORS
 62
256
370
-1
 48
1.0
  6
ByLayer
 10
-0.2976552947820963
 20
-0.3312174887779826
 30
0.0
 11
0.2976552947820998
 21
-0.3312174887779813
 31
0.0
  0
LINE
  5
204
100
AcDbEntity
100
AcDbLine
  8
PHOENIX CONNECTORS
 62
256
370
-1
 48
1.0
  6
ByLayer
 10
-0.2976552947820963
 20
-0.2404932734604914
 30
0.0
 11
-0.2976552947820963
 21
-0.3312174887779826
 31
0.0
  0
LINE
  5
205
100
AcDbEntity
100
AcDbLine
  8
PHOENIX CONNECTORS
 62
256
370
-1
 48
1.0
  6
ByLayer
 10
-0.1226562499999986
 20
-0.3312174887779804
 30
0.0
 11
-0.1226562499999986
 21
-0.6074222480695171
 31
0.0
  0
LINE
  5
206
100
AcDbEntity
100
AcDbLine
  8
PHOENIX CONNECTORS
 62
256
370
-1
 48
1.0
  6
ByLayer
 10
-0.0726562500000014
 20
-0.3312174887779813
 30
0.0
 11
-0.0726562500000014
 21
-0.6074222480695237
 31
0.0
  0
CIRCLE
  5
207
100
AcDbEntity
100
AcDbCircle
  8
PHOENIX CONNECTORS
 62
256
370
-1
 48
1.0
  6
ByLayer
 10
-0.2067038655998843
 20
-0.7404484923891435
 30
0.0
 40
0.08
  0
LINE
  5
208
100
AcDbEntity
100
AcDbLine
  8
PHOENIX CONNECTORS
 62
256
370
-1
 48
1.0
  6
ByLayer
 10
-0.2168228530552341
 20
-0.8204484923891351
 30
0.0
 11
-0.2168228530552341
 21
-0.6604484923891421
 31
0.0
  0
LINE
  5
209
100
AcDbEntity
100
AcDbLine
  8
PHOENIX CONNECTORS
 62
256
370
-1
 48
1.0
  6
ByLayer
 10
-0.1968228530552345
 20
-0.8204484923891591
 30
0.0
 11
-0.196822853055231
 21
-0.6604484923891394
 31
0.0
  0
CIRCLE
  5
20A
100
AcDbEntity
100
AcDbCircle
  8
PHOENIX CONNECTORS
 62
256
370
-1
 48
1.0
  6
ByLayer
 10
-0.0113913655998843
 20
-0.7404484923891372
 30
0.0
 40
0.08
  0
LINE
  5
20B
100
AcDbEntity
100
AcDbLine
  8
PHOENIX CONNECTORS
 62
256
370
-1
 48
1.0
  6
ByLayer
 10
-0.0215103530552341
 20
-0.8204484923891311
 30
0.0
 11
-0.0215103530552341
 21
-0.6604484923891354
 31
0.0
  0
LINE
  5
20C
100
AcDbEntity
100
AcDbLine
  8
PHOENIX CONNECTORS
 62
256
370
-1
 48
1.0
  6
ByLayer
 10
-0.0015103530552345
 20
-0.8204484923891462
 30
0.0
 11
-0.001510353055231
 21
-0.6604484923891376
 31
0.0
  0
LINE
  5
20D
100
AcDbEntity
100
AcDbLine
  8
PHOENIX CONNECTORS
 62
256
370
-1
 48
1.0
  6
ByLayer
 10
-0.2976552947820963
 20
-0.4541015254911498
 30
0.0
 11
-0.1226562499999986
 21
-0.4541015254911507
 31
0.0
  0
LINE
  5
20E
100
AcDbEntity
100
AcDbLine
  8
PHOENIX CONNECTORS
 62
256
370
-1
 48
1.0
  6
ByLayer
 10
0.122656249999995
 20
-0.4541015254911494
 30
0.0
 11
0.2976552947820892
 21
-0.4541015254911498
 31
0.0
  0
LINE
  5
20F
100
AcDbEntity
100
AcDbLine
  8
PHOENIX CONNECTORS
 62
256
370
-1
 48
1.0
  6
ByLayer
 10
-0.0726562500000014
 20
-0.4541015254911489
 30
0.0
 11
0.0726562499999979
 21
-0.4541015254911494
 31
0.0
  0
LINE
  5
210
100
AcDbEntity
100
AcDbLine
  8
PHOENIX CONNECTORS
 62
256
370
-1
 48
1.0
  6
ByLayer
 10
-0.1467682292767307
 20
-0.4541015254911489
 30
0.0
 11
-0.1467682292767307
 21
-0.4098063217325789
 31
0.0
  0
LINE
  5
211
100
AcDbEntity
100
AcDbLine
  8
PHOENIX CONNECTORS
 62
256
370
-1
 48
1.0
  6
ByLayer
 10
-0.2487191982103525
 20
-0.4541015254911498
 30
0.0
 11
-0.1467682292767307
 21
-0.4541015254911489
 31
0.0
  0
LINE
  5
212
100
AcDbEntity
100
AcDbLine
  8
PHOENIX CONNECTORS
 62
256
370
-1
 48
1.0
  6
ByLayer
 10
-0.2487191982103525
 20
-0.4098063217325794
 30
0.0
 11
-0.2487191982103525
 21
-0.4541015254911498
 31
0.0
  0
LINE
  5
213
100
AcDbEntity
100
AcDbLine
  8
PHOENIX CONNECTORS
 62
256
370
-1
 48
1.0
  6
ByLayer
 10
-0.1467682292767307
 20
-0.4098063217325789
 30
0.0
 11
-0.2487191982103525
 21
-0.4098063217325794
 31
0.0
  0
LINE
  5
214
100
AcDbEntity
100
AcDbLine
  8
PHOENIX CONNECTORS
 62
256
370
-1
 48
1.0
  6
ByLayer
 10
-0.0485442707232693
 20
-0.4098063217325798
 30
0.0
 11
0.0534066982103525
 21
-0.4098063217325794
 31
0.0
  0
LINE
  5
215
100
AcDbEntity
100
AcDbLine
  8
PHOENIX CONNECTORS
 62
256
370
-1
 48
1.0
  6
ByLayer
 10
-0.0485442707232693
 20
-0.4541015254911498
 30
0.0
 11
-0.0485442707232693
 21
-0.4098063217325798
 31
0.0
  0
LINE
  5
216
100
AcDbEntity
100
AcDbLine
  8
PHOENIX CONNECTORS
 62
256
370
-1
 48
1.0
  6
ByLayer
 10
0.0534066982103525
 20
-0.4541015254911498
 30
0.0
 11
-0.0485442707232693
 21
-0.4541015254911498
 31
0.0
  0
LINE
  5
217
100
AcDbEntity
100
AcDbLine
  8
PHOENIX CONNECTORS
 62
256
370
-1
 48
1.0
  6
ByLayer
 10
0.0534066982103525
 20
-0.4098063217325794
 30
0.0
 11
0.0534066982103525
 21
-0.4541015254911498
 31
0.0
  0
ENDBLK
  5
218
100
AcDbEntity
  8
0
100
AcDbBlockEnd
  0
BLOCK
  5
219
100
AcDbEntity
  8
0
100
AcDbBlockBegin
  2
CONN RIBBON 14 PIN
 70
0
 10
0.0
 20
0.0
 30
0.0
  3
CONN RIBBON 14 PIN
  1

  0
LINE
  5
21A
100
AcDbEntity
100
AcDbLine
  8
RIBBON CONNECTORS
 62
256
370
-1
 48
1.0
  6
ByLayer
 10
-0.1094533946235448
 20
-0.3501399542745958
 30
0.0
 11
-0.3498589064458901
 21
-0.3501399542745958
 31
0.0
  0
LINE
  5
21B
100
AcDbEntity
100
AcDbLine
  8
RIBBON CONNECTORS
 62
256
370
-1
 48
1.0
  6
ByLayer
 10
0.0000000000000018
 20
0.0
 30
0.0
 11
-0.3498589064458901
 21
0.0
 31
0.0
  0
LINE
  5
21C
100
AcDbEntity
100
AcDbLine
  8
RIBBON CONNECTORS
 62
256
370
-1
 48
1.0
  6
ByLayer
 10
0.0000000000000018
 20
-1.000043638695681
 30
0.0
 11
0.0000000000000018
 21
0.0
 31
0.0
  0
LINE
  5
21D
100
AcDbEntity
100
AcDbLine
  8
RIBBON CONNECTORS
 62
256
370
-1
 48
1.0
  6
ByLayer
 10
-0.3498589064458901
 20
-0.6497393680765797
 30
0.0
 11
-0.1094533946235448
 21
-0.6497393680765815
 31
0.0
  0
LINE
  5
21E
100
AcDbEntity
100
AcDbLine
  8
RIBBON CONNECTORS
 62
256
370
-1
 48
1.0
  6
ByLayer
 10
-0.3498589064458901
 20
-1.000043638695681
 30
0.0
 11
0.0000000000000018
 21
-1.000043638695681
 31
0.0
  0
LINE
  5
21F
100
AcDbEntity
100
AcDbLine
  8
RIBBON CONNECTORS
 62
256
370
-1
 48
1.0
  6
ByLayer
 10
-0.1094533946235448
 20
-0.3501399542745958
 30
0.0
 11
-0.1094533946235448
 21
-0.6497393680765797
 31
0.0
  0
LINE
  5
220
100
AcDbEntity
100
AcDbLine
  8
RIBBON CONNECTORS
 62
256
370
-1
 48
1.0
  6
ByLayer
 10
-0.1094533946235448
 20
-0.5054872549993696
 30
0.0
 11
-0.3418862306539197
 21
-0.5054872549993696
 31
0.0
  0
LINE
  5
221
100
AcDbEntity
100
AcDbLine
  8
RIBBON CONNECTORS
 62
256
370
-1
 48
1.0
  6
ByLayer
 10
-0.3418862306539197
 20
-0.494508134121876
 30
0.0
 11
-0.3498589064458901
 21
-0.4999976945606228
 31
0.0
  0
LINE
  5
222
100
AcDbEntity
100
AcDbLine
  8
RIBBON CONNECTORS
 62
256
370
-1
 48
1.0
  6
ByLayer
 10
-0.3498589064458901
 20
-0.4999976945606228
 30
0.0
 11
-0.3418862306539197
 21
-0.5054872549993696
 31
0.0
  0
LINE
  5
223
100
AcDbEntity
100
AcDbLine
  8
RIBBON CONNECTORS
 62
256
370
-1
 48
1.0
  6
ByLayer
 10
-0.1094533946235448
 20
-0.494508134121876
 30
0.0
 11
-0.3418862306539197
 21
-0.494508134121876
 31
0.0
  0
LINE
  5
224
100
AcDbEntity
100
AcDbLine
  8
RIBBON CONNECTORS
 62
256
370
-1
 48
1.0
  6
ByLayer
 10
-0.3418862306539197
 20
-0.5054872549993696
 30
0.0
 11
-0.3418862306539197
 21
-0.494508134121876
 31
0.0
  0
LINE
  5
225
100
AcDbEntity
100
AcDbLine
  8
RIBBON CONNECTORS
 62
256
370
-1
 48
1.0
  6
ByLayer
 10
0.0997435612777959
 20
-0.505861655111719
 30
0.0
 11
0.0000000000000018
 21
-0.505861655111719
 31
0.0
  0
LINE
  5
226
100
AcDbEntity
100
AcDbLine
  8
RIBBON CONNECTORS
 62
256
370
-1
 48
1.0
  6
ByLayer
 10
0.0997435612777959
 20
-0.4061180938339248
 30
0.0
 11
0.0000000000000018
 21
-0.4061180938339248
 31
0.0
  0
LINE
  5
227
100
AcDbEntity
100
AcDbLine
  8
RIBBON CONNECTORS
 62
256
370
-1
 48
1.0
  6
ByLayer
 10
0.0997435612777959
 20
-0.3063745325561307
 30
0.0
 11
0.0000000000000018
 21
-0.3063745325561307
 31
0.0
  0
LINE
  5
228
100
AcDbEntity
100
AcDbLine
  8
RIBBON CONNECTORS
 62
256
370
-1
 48
1.0
  6
ByLayer
 10
0.0997435612777959
 20
-0.2066309712783365
 30
0.0
 11
0.0000000000000018
 21
-0.2066309712783365
 31
0.0
  0
LINE
  5
229
100
AcDbEntity
100
AcDbLine
  8
RIBBON CONNECTORS
 62
256
370
-1
 48
1.0
  6
ByLayer
 10
0.0997435612777959
 20
-0.6056052163895149
 30
0.0
 11
0.0000000000000018
 21
-0.6056052163895132
 31
0.0
  0
LINE
  5
22A
100
AcDbEntity
100
AcDbLine
  8
RIBBON CONNECTORS
 62
256
370
-1
 48
1.0
  6
ByLayer
 10
0.0000000000000018
 20
-0.6943696567898137
 30
0.0
 11
0.0997435612777959
 21
-0.6943696567898137
 31
0.0
  0
LINE
  5
22B
100
AcDbEntity
100
AcDbLine
  8
RIBBON CONNECTORS
 62
256
370
-1
 48
1.0
  6
ByLayer
 10
0.0997435612777959
 20
-0.6943696567898137
 30
0.0
 11
0.0997435612777959
 21
-0.7053487776673073
 31
0.0
  0
LINE
  5
22C
100
AcDbEntity
100
AcDbLine
  8
RIBBON CONNECTORS
 62
256
370
-1
 48
1.0
  6
ByLayer
 10
0.0997435612777959
 20
-0.7053487776673073
 30
0.0
 11
0.0000000000000018
 21
-0.7053487776673073
 31
0.0
  0
LINE
  5
22D
100
AcDbEntity
100
AcDbLine
  8
RIBBON CONNECTORS
 62
256
370
-1
 48
1.0
  6
ByLayer
 10
0.0000000000000018
 20
-0.8050923389451015
 30
0.0
 11
0.0000000000000018
 21
-0.7941132180676078
 31
0.0
  0
LINE
  5
22E
100
AcDbEntity
100
AcDbLine
  8
RIBBON CONNECTORS
 62
256
370
-1
 48
1.0
  6
ByLayer
 10
0.0997435612777959
 20
-0.8050923389451015
 30
0.0
 11
0.0000000000000018
 21
-0.8050923389451015
 31
0.0
  0
LINE
  5
22F
100
AcDbEntity
100
AcDbLine
  8
RIBBON CONNECTORS
 62
256
370
-1
 48
1.0
  6
ByLayer
 10
0.0000000000000018
 20
-0.7941132180676078
 30
0.0
 11
0.0997435612777959
 21
-0.7941132180676078
 31
0.0
  0
LINE
  5
230
100
AcDbEntity
100
AcDbLine
  8
RIBBON CONNECTORS
 62
256
370
-1
 48
1.0
  6
ByLayer
 10
0.0997435612777959
 20
-0.7941132180676078
 30
0.0
 11
0.0997435612777959
 21
-0.8050923389451015
 31
0.0
  0
LINE
  5
231
100
AcDbEntity
100
AcDbLine
  8
RIBBON CONNECTORS
 62
256
370
-1
 48
1.0
  6
ByLayer
 10
0.0997435612777959
 20
-0.4948825342342254
 30
0.0
 11
0.0000000000000018
 21
-0.4948825342342254
 31
0.0
  0
LINE
  5
232
100
AcDbEntity
100
AcDbLine
  8
RIBBON CONNECTORS
 62
256
370
-1
 48
1.0
  6
ByLayer
 10
0.0997435612777959
 20
-0.3951389729564312
 30
0.0
 11
0.0000000000000018
 21
-0.3951389729564312
 31
0.0
  0
LINE
  5
233
100
AcDbEntity
100
AcDbLine
  8
RIBBON CONNECTORS
 62
256
370
-1
 48
1.0
  6
ByLayer
 10
0.0997435612777959
 20
-0.295395411678637
 30
0.0
 11
0.0000000000000018
 21
-0.295395411678637
 31
0.0
  0
LINE
  5
234
100
AcDbEntity
100
AcDbLine
  8
RIBBON CONNECTORS
 62
256
370
-1
 48
1.0
  6
ByLayer
 10
0.0997435612777959
 20
-0.1956518504008429
 30
0.0
 11
0.0000000000000018
 21
-0.1956518504008429
 31
0.0
  0
LINE
  5
235
100
AcDbEntity
100
AcDbLine
  8
RIBBON CONNECTORS
 62
256
370
-1
 48
1.0
  6
ByLayer
 10
0.0997435612777959
 20
-0.5946260955120213
 30
0.0
 11
0.0000000000000018
 21
-0.5946260955120195
 31
0.0
  0
LINE
  5
236
100
AcDbEntity
100
AcDbLine
  8
RIBBON CONNECTORS
 62
256
370
-1
 48
1.0
  6
ByLayer
 10
0.0997435612777959
 20
-0.6056052163895132
 30
0.0
 11
0.0997435612777959
 21
-0.5946260955120195
 31
0.0
  0
LINE
  5
237
100
AcDbEntity
100
AcDbLine
  8
RIBBON CONNECTORS
 62
256
370
-1
 48
1.0
  6
ByLayer
 10
0.0997435612777959
 20
-0.5058616551117172
 30
0.0
 11
0.0997435612777959
 21
-0.4948825342342254
 31
0.0
  0
LINE
  5
238
100
AcDbEntity
100
AcDbLine
  8
RIBBON CONNECTORS
 62
256
370
-1
 48
1.0
  6
ByLayer
 10
0.0997435612777959
 20
-0.4061180938339248
 30
0.0
 11
0.0997435612777959
 21
-0.3951389729564312
 31
0.0
  0
LINE
  5
239
100
AcDbEntity
100
AcDbLine
  8
RIBBON CONNECTORS
 62
256
370
-1
 48
1.0
  6
ByLayer
 10
0.0997435612777959
 20
-0.3063745325561307
 30
0.0
 11
0.0997435612777959
 21
-0.295395411678637
 31
0.0
  0
LINE
  5
23A
100
AcDbEntity
100
AcDbLine
  8
RIBBON CONNECTORS
 62
256
370
-1
 48
1.0
  6
ByLayer
 10
0.0997435612777959
 20
-0.2066309712783383
 30
0.0
 11
0.0997435612777959
 21
-0.1956518504008447
 31
0.0
  0
ARC
  5
23B
100
AcDbEntity
  8
RIBBON CONNECTORS
 62
256
370
-1
 48
1.0
  6
ByLayer
100
AcDbCircle
 10
0.0997435612777959
 20
-0.7996027785063546
 30
0.0
 40
0.0075
100
AcDbArc
 50
227.049395639826
 51
132.95060436017403
  0
ARC
  5
23C
100
AcDbEntity
  8
RIBBON CONNECTORS
 62
256
370
-1
 48
1.0
  6
ByLayer
100
AcDbCircle
 10
0.0997435612777959
 20
-0.6998592172285605
 30
0.0
 40
0.0075
100
AcDbArc
 50
227.049395639826
 51
132.95060436017403
  0
ARC
  5
23D
100
AcDbEntity
  8
RIBBON CONNECTORS
 62
256
370
-1
 48
1.0
  6
ByLayer
100
AcDbCircle
 10
0.0997435612777959
 20
-0.6001156559507663
 30
0.0
 40
0.0075
100
AcDbArc
 50
227.049395639826
 51
132.95060436017403
  0
ARC
  5
23E
100
AcDbEntity
  8
RIBBON CONNECTORS
 62
256
370
-1
 48
1.0
  6
ByLayer
100
AcDbCircle
 10
0.0997435612777959
 20
-0.5003720946729722
 30
0.0
 40
0.0075
100
AcDbArc
 50
227.049395639826
 51
132.95060436017403
  0
ARC
  5
23F
100
AcDbEntity
  8
RIBBON CONNECTORS
 62
256
370
-1
 48
1.0
  6
ByLayer
100
AcDbCircle
 10
0.0997435612777959
 20
-0.400628533395178
 30
0.0
 40
0.0075
100
AcDbArc
 50
227.049395639826
 51
132.95060436017403
  0
ARC
  5
240
100
AcDbEntity
  8
RIBBON CONNECTORS
 62
256
370
-1
 48
1.0
  6
ByLayer
100
AcDbCircle
 10
0.0997435612777959
 20
-0.3008849721173839
 30
0.0
 40
0.0075
100
AcDbArc
 50
227.049395639826
 51
132.95060436017403
  0
ARC
  5
241
100
AcDbEntity
  8
RIBBON CONNECTORS
 62
256
370
-1
 48
1.0
  6
ByLayer
100
AcDbCircle
 10
0.0997435612777959
 20
-0.2011414108395915
 30
0.0
 40
0.0075
100
AcDbArc
 50
227.049395639826
 51
132.95060436017403
  0
LINE
  5
242
100
AcDbEntity
100
AcDbLine
  8
RIBBON CONNECTORS
 62
256
370
-1
 48
1.0
  6
ByLayer
 10
-0.3498589064458901
 20
-0.6497393680765797
 30
0.0
 11
-0.3498589064458901
 21
-1.000043638695681
 31
0.0
  0
LINE
  5
243
100
AcDbEntity
100
AcDbLine
  8
RIBBON CONNECTORS
 62
256
370
-1
 48
1.0
  6
ByLayer
 10
-0.3498589064458901
 20
0.0
 30
0.0
 11
-0.3498589064458901
 21
-0.3501399542745958
 31
0.0
  0
ENDBLK
  5
244
100
AcDbEntity
  8
0
100
AcDbBlockEnd
  0
ENDSEC
  0
SECTION
  2
ENTITIES
  0
LINE
  5
245
100
AcDbEntity
100
AcDbLine
  8
PCB
 62
256
370
-1
 48
1.0
  6
ByLayer
 10
16.599999999999998
 20
1.3999999999999977
 30
0.0
 11
16.599999999999998
 21
2.0649999999999826
 31
0.0
  0
LINE
  5
246
100
AcDbEntity
100
AcDbLine
  8
PCB
 62
256
370
-1
 48
1.0
  6
ByLayer
 10
16.599999999999998
 20
5.4000000000000012
 30
0.0
 11
8.5999999999999979
 21
5.3999999999999986
 31
0.0
  0
LINE
  5
247
100
AcDbEntity
100
AcDbLine
  8
PCB
 62
256
370
-1
 48
1.0
  6
ByLayer
 10
8.5999999999999979
 20
5.3999999999999986
 30
0.0
 11
8.5999999999999979
 21
2.4497088054939185
 31
0.0
  0
LINE
  5
248
100
AcDbEntity
100
AcDbLine
  8
PCB
 62
256
370
-1
 48
1.0
  6
ByLayer
 10
16.599999999999998
 20
2.4649980895641437
 30
0.0
 11
16.599999999999998
 21
2.6023447052179036
 31
0.0
  0
LINE
  5
249
100
AcDbEntity
100
AcDbLine
  8
PCB
 62
256
370
-1
 48
1.0
  6
ByLayer
 10
16.599999999999998
 20
3.1976552947820926
 30
0.0
 11
16.599999999999998
 21
5.4000000000000012
 31
0.0
  0
LINE
  5
24A
100
AcDbEntity
100
AcDbLine
  8
PCB
 62
256
370
-1
 48
1.0
  6
ByLayer
 10
8.5999999999999979
 20
2.0997088054939193
 30
0.0
 11
8.5999999999999979
 21
1.3999999999999995
 31
0.0
  0
INSERT
  5
24B
100
AcDbEntity
100
AcDbBlockReference
  8
0
 62
256
370
-1
 48
1.0
  6
ByLayer
  2
JACK PROGRAMMING
 10
9.069796559146603
 20
2.2747088054939186
 30
0.0
 50
180.0
  0
INSERT
  5
24C
100
AcDbEntity
100
AcDbBlockReference
  8
0
 62
256
370
-1
 48
1.0
  6
ByLayer
  2
CONN SCREW 2 PIN
 10
16.599999999999998
 20
2.265104780916257
 30
0.0
 50
180.0
  0
LINE
  5
24D
100
AcDbEntity
100
AcDbLine
  8
PCB
 62
256
370
-1
 48
1.0
  6
ByLayer
 10
16.599999999999998
 20
5.4000000000000012
 30
0.0
 11
16.599999999999998
 21
5.1489874485095797
 31
0.0
  0
INSERT
  5
24E
100
AcDbEntity
100
AcDbBlockReference
  8
0
 62
256
370
-1
 48
1.0
  6
ByLayer
  2
CONN RIBBON 16 PIN
 10
16.600000000000001
 20
4.6998620672426936
 30
0.0
 50
180.0
  0
TEXT
  5
24F
100
AcDbEntity
100
AcDbText
  8
TEXT
 62
256
370
-1
 48
1.0
  6
ByLayer
 10
13.098439155271876
 20
1.7738242972619751
 30
0.0
 40
0.125
  1
RLY2
 50
0.0
 41
1.0
  7
textstyle1
 71
0
 72
1
 11
13.098439155271876
 21
1.7738242972619751
 31
0.0
100
AcDbText
 73
2
  0
TEXT
  5
250
100
AcDbEntity
100
AcDbText
  8
TEXT
 62
256
370
-1
 48
1.0
  6
ByLayer
 10
10.400776014247818
 20
1.7738242972619775
 30
0.0
 40
0.125
  1
LOCK
 50
0.0
 41
1.0
  7
textstyle0
 71
0
 72
1
 11
10.400776014247818
 21
1.7738242972619775
 31
0.0
100
AcDbText
 73
2
  0
TEXT
  5
251
100
AcDbEntity
100
AcDbText
  8
TEXT
 62
256
370
-1
 48
1.0
  6
ByLayer
 10
11.705250384625463
 20
1.7738242972619762
 30
0.0
 40
0.125
  1
DOOR    |    READER 2
 50
0.0
 41
1.0
  7
textstyle3
 71
0
 72
1
 11
11.705250384625463
 21
1.7738242972619762
 31
0.0
100
AcDbText
 73
2
  0
TEXT
  5
252
100
AcDbEntity
100
AcDbText
  8
TEXT
 62
256
370
-1
 48
1.0
  6
ByLayer
 10
13.89941333163514
 20
1.773824297261976
 30
0.0
 40
0.125
  1
LOCK
 50
0.0
 41
1.0
  7
textstyle2
 71
0
 72
1
 11
13.89941333163514
 21
1.773824297261976
 31
0.0
100
AcDbText
 73
2
  0
TEXT
  5
253
100
AcDbEntity
100
AcDbText
  8
TEXT
 62
256
370
-1
 48
1.0
  6
ByLayer
 10
15.197867737019216
 20
1.7738242972619762
 30
0.0
 40
0.125
  1
DOOR    |    READER 1
 50
0.0
 41
1.0
  7
textstyle5
 71
0
 72
1
 11
15.197867737019216
 21
1.7738242972619762
 31
0.0
100
AcDbText
 73
2
  0
TEXT
  5
254
100
AcDbEntity
100
AcDbText
  8
TEXT
 62
256
370
-1
 48
1.0
  6
ByLayer
 10
9.6036030847413567
 20
1.7738242972619775
 30
0.0
 40
0.125
  1
RLY2
 50
0.0
 41
1.0
  7
textstyle4
 71
0
 72
1
 11
9.6036030847413567
 21
1.7738242972619775
 31
0.0
100
AcDbText
 73
2
  0
TEXT
  5
255
100
AcDbEntity
100
AcDbText
  8
TEXT
 62
256
370
-1
 48
1.0
  6
ByLayer
 10
16.309688912753899
 20
2.9206092664464451
 30
0.0
 40
0.125
  1
FBUS
 50
270.0
 41
1.0
  7
textstyle7
 71
0
 72
1
 11
16.209688912753897
 21
2.9206092664464451
 31
0.0
100
AcDbText
 73
2
  0
TEXT
  5
256
100
AcDbEntity
100
AcDbText
  8
TEXT
 62
256
370
-1
 48
1.0
  6
ByLayer
 10
16.309688912753899
 20
2.2628386585182478
 30
0.0
 40
0.125
  1
PWR
 50
270.0
 41
1.0
  7
textstyle6
 71
0
 72
1
 11
16.209688912753897
 21
2.2628386585182478
 31
0.0
100
AcDbText
 73
2
  0
INSERT
  5
257
100
AcDbEntity
100
AcDbBlockReference
  8
0
 62
256
370
-1
 48
1.0
  6
ByLayer
  2
SWITCH RESET
 10
8.9297404589351927
 20
1.6450534886066772
 30
0.0
  0
INSERT
  5
258
100
AcDbEntity
100
AcDbBlockReference
  8
0
 62
256
370
-1
 48
1.0
  6
ByLayer
  2
HARDWARE SCREW PHILIPS
 10
12.596352112208354
 20
5.1489874485095797
 30
0.0
  0
INSERT
  5
259
100
AcDbEntity
100
AcDbBlockReference
  8
0
 62
256
370
-1
 48
1.0
  6
ByLayer
  2
HARDWARE SCREW PHILIPS
 10
16.349512856883941
 20
5.1489874485095788
 30
0.0
  0
INSERT
  5
25A
100
AcDbEntity
100
AcDbBlockReference
  8
0
 62
256
370
-1
 48
1.0
  6
ByLayer
  2
HARDWARE SCREW PHILIPS
 10
8.8529964061132542
 20
5.1489874485095823
 30
0.0
  0
INSERT
  5
25B
100
AcDbEntity
100
AcDbBlockReference
  8
RIBBON CONNECTORS
 62
256
370
-1
 48
1.0
  6
ByLayer
  2
CONN RIBBON 14 PIN
 10
8.949858906445888
 20
4.6998620672426945
 30
0.0
  0
INSERT
  5
25C
100
AcDbEntity
100
AcDbBlockReference
  8
0
 62
256
370
-1
 48
1.0
  6
ByLayer
  2
CONN SCREW 3 PIN
 10
16.100000000000001
 20
2.8999999999999999
 30
0.0
 50
90.0
  0
INSERT
  5
25D
100
AcDbEntity
100
AcDbBlockReference
  8
0
 62
256
370
-1
 48
1.0
  6
ByLayer
  2
CONN SCREW 9 PIN
 10
15.199999999999999
 20
1.8999999999999999
 30
0.0
  0
INSERT
  5
25E
100
AcDbEntity
100
AcDbBlockReference
  8
0
 62
256
370
-1
 48
1.0
  6
ByLayer
  2
CONN SCREW 3 PIN
 10
13.9
 20
1.8999999999999999
 30
0.0
  0
INSERT
  5
25F
100
AcDbEntity
100
AcDbBlockReference
  8
0
 62
256
370
-1
 48
1.0
  6
ByLayer
  2
LEDS
 10
13.5
 20
1.4999999999999998
 30
0.0
  0
INSERT
  5
260
100
AcDbEntity
100
AcDbBlockReference
  8
0
 62
256
370
-1
 48
1.0
  6
ByLayer
  2
CONN SCREW 3 PIN
 10
13.1
 20
1.8999999999999999
 30
0.0
  0
INSERT
  5
261
100
AcDbEntity
100
AcDbBlockReference
  8
0
 62
256
370
-1
 48
1.0
  6
ByLayer
  2
LEDS
 10
12.699999999999999
 20
1.4999999999999998
 30
0.0
  0
INSERT
  5
262
100
AcDbEntity
100
AcDbBlockReference
  8
0
 62
256
370
-1
 48
1.0
  6
ByLayer
  2
CONN SCREW 9 PIN
 10
11.699999999999999
 20
1.8999999999999999
 30
0.0
  0
INSERT
  5
263
100
AcDbEntity
100
AcDbBlockReference
  8
0
 62
256
370
-1
 48
1.0
  6
ByLayer
  2
CONN SCREW 3 PIN
 10
10.4
 20
1.8999999999999999
 30
0.0
  0
INSERT
  5
264
100
AcDbEntity
100
AcDbBlockReference
  8
0
 62
256
370
-1
 48
1.0
  6
ByLayer
  2
LEDS
 10
10.0
 20
1.4999999999999998
 30
0.0
  0
INSERT
  5
265
100
AcDbEntity
100
AcDbBlockReference
  8
0
 62
256
370
-1
 48
1.0
  6
ByLayer
  2
CONN SCREW 3 PIN
 10
9.5999999999999996
 20
1.8999999999999999
 30
0.0
  0
INSERT
  5
266
100
AcDbEntity
100
AcDbBlockReference
  8
0
 62
256
370
-1
 48
1.0
  6
ByLayer
  2
LEDS
 10
9.1999999999999993
 20
1.4999999999999998
 30
0.0
  0
INSERT
  5
267
100
AcDbEntity
100
AcDbBlockReference
  8
0
 62
256
370
-1
 48
1.0
  6
ByLayer
  2
LEDS
 10
16.399999999999999
 20
1.4999999999999998
 30
0.0
  0
LINE
  5
268
100
AcDbEntity
100
AcDbLine
  8
PCB
 62
256
370
-1
 48
1.0
  6
ByLayer
 10
16.431137561461597
 20
1.3999999999999977
 30
0.0
 11
16.599999999999998
 21
1.3999999999999977
 31
0.0
  0
LINE
  5
269
100
AcDbEntity
100
AcDbLine
  8
PCB
 62
256
370
-1
 48
1.0
  6
ByLayer
 10
16.083592794782092
 20
1.3999999999999979
 30
0.0
 11
16.368862438538404
 21
1.3999999999999977
 31
0.0
  0
LINE
  5
26A
100
AcDbEntity
100
AcDbLine
  8
PCB
 62
256
370
-1
 48
1.0
  6
ByLayer
 10
14.197655294782091
 20
1.3999999999999984
 30
0.0
 11
14.316407205217905
 21
1.3999999999999984
 31
0.0
  0
LINE
  5
26B
100
AcDbEntity
100
AcDbLine
  8
PCB
 62
256
370
-1
 48
1.0
  6
ByLayer
 10
13.531137561461557
 20
1.3999999999999984
 30
0.0
 11
13.602344705217904
 21
1.3999999999999984
 31
0.0
  0
LINE
  5
26C
100
AcDbEntity
100
AcDbLine
  8
PCB
 62
256
370
-1
 48
1.0
  6
ByLayer
 10
13.397655294782092
 20
1.3999999999999984
 30
0.0
 11
13.468862438538443
 21
1.3999999999999984
 31
0.0
  0
LINE
  5
26D
100
AcDbEntity
100
AcDbLine
  8
PCB
 62
256
370
-1
 48
1.0
  6
ByLayer
 10
12.731137561461537
 20
1.3999999999999986
 30
0.0
 11
12.802344705217905
 21
1.3999999999999986
 31
0.0
  0
LINE
  5
26E
100
AcDbEntity
100
AcDbLine
  8
PCB
 62
256
370
-1
 48
1.0
  6
ByLayer
 10
12.583592794782092
 20
1.3999999999999986
 30
0.0
 11
12.668862438538461
 21
1.3999999999999986
 31
0.0
  0
LINE
  5
26F
100
AcDbEntity
100
AcDbLine
  8
PCB
 62
256
370
-1
 48
1.0
  6
ByLayer
 10
10.697655294782093
 20
1.399999999999999
 30
0.0
 11
10.816407205217903
 21
1.399999999999999
 31
0.0
  0
LINE
  5
270
100
AcDbEntity
100
AcDbLine
  8
PCB
 62
256
370
-1
 48
1.0
  6
ByLayer
 10
10.031137561461557
 20
1.399999999999999
 30
0.0
 11
10.102344705217904
 21
1.399999999999999
 31
0.0
  0
LINE
  5
271
100
AcDbEntity
100
AcDbLine
  8
PCB
 62
256
370
-1
 48
1.0
  6
ByLayer
 10
9.8976552947820924
 20
1.399999999999999
 30
0.0
 11
9.9688624385384426
 21
1.399999999999999
 31
0.0
  0
LINE
  5
272
100
AcDbEntity
100
AcDbLine
  8
PCB
 62
256
370
-1
 48
1.0
  6
ByLayer
 10
9.2311375614615603
 20
1.3999999999999992
 30
0.0
 11
9.3023447052179034
 21
1.3999999999999992
 31
0.0
  0
LINE
  5
273
100
AcDbEntity
100
AcDbLine
  8
PCB
 62
256
370
-1
 48
1.0
  6
ByLayer
 10
8.5999999999999979
 20
1.3999999999999995
 30
0.0
 11
9.1688624385384383
 21
1.3999999999999992
 31
0.0
  0
ENDSEC
  0
SECTION
  2
OBJECTS
  0
DICTIONARY
  5
C
100
AcDbDictionary
280
0
281
1
  3
ACAD_GROUP
350
D
  3
ACAD_LAYOUT
350
1A
  3
ACAD_MLINESTYLE
350
17
  3
ACAD_PLOTSETTINGS
350
19
  3
ACAD_PLOTSTYLENAME
350
E
  3
AcDbVariableDictionary
350
274
  3
QCAD_OBJECTS
350
275
  0
DICTIONARY
  5
D
100
AcDbDictionary
280
0
281
1
  0
ACDBDICTIONARYWDFLT
  5
E
100
AcDbDictionary
281
1
  3
Normal
350
F
100
AcDbDictionaryWithDefault
340
F
  0
ACDBPLACEHOLDER
  5
F
  0
DICTIONARY
  5
17
100
AcDbDictionary
280
0
281
1
  3
Standard
350
18
  0
MLINESTYLE
  5
18
100
AcDbMlineStyle
  2
STANDARD
 70
0
  3

 62
256
 51
90.0
 52
90.0
 71
2
 49
0.5
 62
256
  6
BYLAYER
 49
-0.5
 62
256
  6
BYLAYER
  0
DICTIONARY
  5
19
100
AcDbDictionary
280
0
281
1
  0
DICTIONARY
  5
1A
100
AcDbDictionary
281
1
  3
Layout1
350
1E
  3
Layout2
350
26
  3
Model
350
22
  0
LAYOUT
  5
1E
100
AcDbPlotSettings
  1

  2
none_device
  4

  6

 40
0.0
 41
0.0
 42
0.0
 43
0.0
 44
0.0
 45
0.0
 46
0.0
 47
0.0
 48
0.0
 49
0.0
140
0.0
141
0.0
142
1.0
143
1.0
 70
688
 72
0
 73
0
 74
5
  7

 75
16
147
1.0
148
0.0
149
0.0
100
AcDbLayout
  1
Layout1
 70
1
 71
1
 10
0.0
 20
0.0
 11
420.0
 21
297.0
 12
0.0
 22
0.0
 32
0.0
 14
100000000000000000000.0
 24
100000000000000000000.0
 34
100000000000000000000.0
 15
-100000000000000000000.0
 25
-100000000000000000000.0
 35
-100000000000000000000.0
146
0.0
 13
0.0
 23
0.0
 33
0.0
 16
1.0
 26
0.0
 36
0.0
 17
0.0
 27
1.0
 37
0.0
 76
0
330
1B
  0
LAYOUT
  5
22
100
AcDbPlotSettings
  1

  2
none_device
  4

  6

 40
0.0
 41
0.0
 42
0.0
 43
0.0
 44
0.0
 45
0.0
 46
0.0
 47
0.0
 48
0.0
 49
0.0
140
0.0
141
0.0
142
1.0
143
1.0
 70
1712
 72
0
 73
0
 74
0
  7

 75
0
147
1.0
148
0.0
149
0.0
100
AcDbLayout
  1
Model
 70
1
 71
0
 10
0.0
 20
0.0
 11
12.0
 21
9.0
 12
0.0
 22
0.0
 32
0.0
 14
0.0
 24
0.0
 34
0.0
 15
0.0
 25
0.0
 35
0.0
146
0.0
 13
0.0
 23
0.0
 33
0.0
 16
1.0
 26
0.0
 36
0.0
 17
0.0
 27
1.0
 37
0.0
 76
0
330
1F
  0
LAYOUT
  5
26
100
AcDbPlotSettings
  1

  2
none_device
  4

  6

 40
0.0
 41
0.0
 42
0.0
 43
0.0
 44
0.0
 45
0.0
 46
0.0
 47
0.0
 48
0.0
 49
0.0
140
0.0
141
0.0
142
1.0
143
1.0
 70
688
 72
0
 73
0
 74
5
  7

 75
16
147
1.0
148
0.0
149
0.0
100
AcDbLayout
  1
Layout2
 70
1
 71
2
 10
0.0
 20
0.0
 11
12.0
 21
9.0
 12
0.0
 22
0.0
 32
0.0
 14
0.0
 24
0.0
 34
0.0
 15
0.0
 25
0.0
 35
0.0
146
0.0
 13
0.0
 23
0.0
 33
0.0
 16
1.0
 26
0.0
 36
0.0
 17
0.0
 27
1.0
 37
0.0
 76
0
330
23
  0
DICTIONARY
  5
274
100
AcDbDictionary
281
1
  3
DIMASSOC
350
277
  3
HIDETEXT
350
276
  0
DICTIONARYVAR
  5
276
100
DictionaryVariables
280
0
  1
2
  0
DICTIONARYVAR
  5
277
100
DictionaryVariables
280
0
  1
1
  0
DICTIONARY
  5
275
100
AcDbDictionary
281
1
  3
ColorSettings/BackgroundColor
350
278
  3
ColorSettings/ColorMode
350
279
  3
Grid/DisplayGrid00
350
27A
  3
Grid/DisplayGrid01
350
27B
  3
Grid/DisplayGrid02
350
27C
  3
Grid/DisplayGrid03
350
27D
  3
Grid/GridSpacingX00
350
27E
  3
Grid/GridSpacingX01
350
27F
  3
Grid/GridSpacingX02
350
280
  3
Grid/GridSpacingX03
350
281
  3
Grid/GridSpacingY00
350
282
  3
Grid/GridSpacingY01
350
283
  3
Grid/GridSpacingY02
350
284
  3
Grid/GridSpacingY03
350
285
  3
Grid/IsometricGrid00
350
286
  3
Grid/IsometricGrid01
350
287
  3
Grid/IsometricGrid02
350
288
  3
Grid/IsometricGrid03
350
289
  3
Grid/IsometricProjection00
350
28A
  3
Grid/IsometricProjection01
350
28B
  3
Grid/IsometricProjection02
350
28C
  3
Grid/IsometricProjection03
350
28D
  3
Grid/MetaGridSpacingX00
350
28E
  3
Grid/MetaGridSpacingX01
350
28F
  3
Grid/MetaGridSpacingX02
350
290
  3
Grid/MetaGridSpacingX03
350
291
  3
Grid/MetaGridSpacingY00
350
292
  3
Grid/MetaGridSpacingY01
350
293
  3
Grid/MetaGridSpacingY02
350
294
  3
Grid/MetaGridSpacingY03
350
295
  3
MultiPageSettings/Columns
350
296
  3
MultiPageSettings/GlueMarginsBottom
350
297
  3
MultiPageSettings/GlueMarginsLeft
350
298
  3
MultiPageSettings/GlueMarginsRight
350
299
  3
MultiPageSettings/GlueMarginsTop
350
29A
  3
MultiPageSettings/PrintCropMarks
350
29B
  3
MultiPageSettings/Rows
350
29C
  3
PageSettings/OffsetX
350
29D
  3
PageSettings/OffsetY
350
29E
  3
PageSettings/PageOrientation
350
29F
  3
PageSettings/PaperHeight
350
2A0
  3
PageSettings/PaperWidth
350
2A1
  3
PageSettings/Scale
350
2A2
  3
PageSettings/ShowPaperBorders
350
2A3
  3
QCADVersion
350
2A4
  3
UnitSettings/PaperUnit
350
2A5
  0
XRECORD
  5
278
330
275
100
AcDbXrecord
280
1
1000
White
  0
XRECORD
  5
279
330
275
100
AcDbXrecord
280
1
1000
FullColor
  0
XRECORD
  5
27A
330
275
100
AcDbXrecord
280
1
290
1
  0
XRECORD
  5
27B
330
275
100
AcDbXrecord
280
1
290
1
  0
XRECORD
  5
27C
330
275
100
AcDbXrecord
280
1
290
1
  0
XRECORD
  5
27D
330
275
100
AcDbXrecord
280
1
290
1
  0
XRECORD
  5
27E
330
275
100
AcDbXrecord
280
1
1000
auto
  0
XRECORD
  5
27F
330
275
100
AcDbXrecord
280
1
1000
auto
  0
XRECORD
  5
280
330
275
100
AcDbXrecord
280
1
1000
auto
  0
XRECORD
  5
281
330
275
100
AcDbXrecord
280
1
1000
auto
  0
XRECORD
  5
282
330
275
100
AcDbXrecord
280
1
1000
auto
  0
XRECORD
  5
283
330
275
100
AcDbXrecord
280
1
1000
auto
  0
XRECORD
  5
284
330
275
100
AcDbXrecord
280
1
1000
auto
  0
XRECORD
  5
285
330
275
100
AcDbXrecord
280
1
1000
auto
  0
XRECORD
  5
286
330
275
100
AcDbXrecord
280
1
290
0
  0
XRECORD
  5
287
330
275
100
AcDbXrecord
280
1
290
0
  0
XRECORD
  5
288
330
275
100
AcDbXrecord
280
1
290
0
  0
XRECORD
  5
289
330
275
100
AcDbXrecord
280
1
290
0
  0
XRECORD
  5
28A
330
275
100
AcDbXrecord
280
1
 90
0
  0
XRECORD
  5
28B
330
275
100
AcDbXrecord
280
1
 90
0
  0
XRECORD
  5
28C
330
275
100
AcDbXrecord
280
1
 90
0
  0
XRECORD
  5
28D
330
275
100
AcDbXrecord
280
1
 90
0
  0
XRECORD
  5
28E
330
275
100
AcDbXrecord
280
1
1000
auto
  0
XRECORD
  5
28F
330
275
100
AcDbXrecord
280
1
1000
auto
  0
XRECORD
  5
290
330
275
100
AcDbXrecord
280
1
1000
auto
  0
XRECORD
  5
291
330
275
100
AcDbXrecord
280
1
1000
auto
  0
XRECORD
  5
292
330
275
100
AcDbXrecord
280
1
1000
auto
  0
XRECORD
  5
293
330
275
100
AcDbXrecord
280
1
1000
auto
  0
XRECORD
  5
294
330
275
100
AcDbXrecord
280
1
1000
auto
  0
XRECORD
  5
295
330
275
100
AcDbXrecord
280
1
1000
auto
  0
XRECORD
  5
296
330
275
100
AcDbXrecord
280
1
 90
1
  0
XRECORD
  5
297
330
275
100
AcDbXrecord
280
1
 40
0.5
  0
XRECORD
  5
298
330
275
100
AcDbXrecord
280
1
 40
0.5
  0
XRECORD
  5
299
330
275
100
AcDbXrecord
280
1
 40
0.5
  0
XRECORD
  5
29A
330
275
100
AcDbXrecord
280
1
 40
0.5
  0
XRECORD
  5
29B
330
275
100
AcDbXrecord
280
1
290
0
  0
XRECORD
  5
29C
330
275
100
AcDbXrecord
280
1
 90
1
  0
XRECORD
  5
29D
330
275
100
AcDbXrecord
280
1
 40
0.0
  0
XRECORD
  5
29E
330
275
100
AcDbXrecord
280
1
 40
0.0
  0
XRECORD
  5
29F
330
275
100
AcDbXrecord
280
1
1000
Landscape
  0
XRECORD
  5
2A0
330
275
100
AcDbXrecord
280
1
 40
11.0
  0
XRECORD
  5
2A1
330
275
100
AcDbXrecord
280
1
 40
8.5
  0
XRECORD
  5
2A2
330
275
100
AcDbXrecord
280
1
1000
1" = 1'-0"
  0
XRECORD
  5
2A3
330
275
100
AcDbXrecord
280
1
290
1
  0
XRECORD
  5
2A4
330
275
100
AcDbXrecord
280
1
1000
3.12.8
  0
XRECORD
  5
2A5
330
275
100
AcDbXrecord
280
1
 90
1
  0
ENDSEC
  0
EOF
